PrimaNota.ru - самый крупный в мире бесплатный архив песенных текстов, аккордов, табулатур и нот


Иоганн Себастьян Бах - Токата и фуга Dm - аккорды и текст, видео

Регистрация Запомнить меня
Войти через:  Facebook Google Twitter Vk Yandex Mail.ru

Иоганн Себастьян Бах - Токата и фуга Dm - аккорды и текст, видео

Печатать
Просмотров: 138
Токата и фуга Dm
Иоганн Себастьян Бах
====================Токата===========================
E|6-5-----------------|
B|5--865----586~8-5-6-|
G|6-----76-6--------7-|
D|0-------7---------7-|
A|4-----------------5-|
E|--------------------|

E|------------15----1517--1517181517-|
B|151718151718--1718----18-----------|
G|-----------------------------------|
D|-----------------------------------|
A|-----------------------------------|
E|-----------------------------------|

E|--15-------------------------------|
B|18--171815171415-------------------|
G|----------------1415--14-----------|
D|--------------------17--15171415---|
A|--------------------------------17-|
E|-----------------------------------|

E|----------------------------------------------|
B|----------------------------------------------|
G|----------------------------------------------|
D|171415--14------------------------------------|
A|------17--16171213--12----------10------------|
E|------------------15--1315121310--12131012910-|

E|---------------------5-------------------5---|---|
B|----12-----10---8---5--------11---10---8-5---|---|
G|--11--11--9--9-7-7-6---------10----9---7-6---|0/-|
D|12------10----8---7-------12----7----8-------|/0-|
A|---------------------------------------------|---|
E|--------------------------10----8----6---5---|---|

E|-----------------------------------|
B|-----------------------------------|
G|(14)----------------------------14-|
D|----171514----------------141517---|
A|----------17161416--151617---------|
E|------------------17---------------|

E|----------------------------131517(b)18-|
B|----------------15----141517------------|
G|------------1418--1416------------------|
D|17151415--15----------------------------|
A|--------17------------------------------|
E|----------------------------------------|

E|------6--5---------------3-|
B|-----8----86565----------5-|
G|---69----------7675------3-|
D|9-7----------------875---5-|
A|----------------------8754-|
E|-------------------------3-|

==============Фуга===============
E|5-5-5-5-5-5-5-5-5-5-5-5-5-5-5-5-5-|
B|-8-6-5---------5-6-------------5--|
G|---------7-6-7-------4-6-7-6-7----|
D|-------------------7--------------|
A|----------------------------------|
E|----------------------------------|

E|--10--10--10--10--10--10--10--10-|
B|----13--11--10--------------10---|
G|10--11--12------12--11--12-------|
D|------------10--------------10---|
A|----------------13--12--13-------|
E|---------------------------------|

E|--10--10--10--10--10--10--10--10-|
B|11--------------------------10---|
G|--------9---11--12--11--12-------|
D|12--12---------------------------|
A|----9---10--12--13--12--13--9----|
E|---------------------------------|

E|----10------10--|11----11----|----8-------8---|
B|11------11------|---8-----8--|10------10------|
G|--12--12--12--12|--8--8--8--8|--10--10--10--10|
D|--------12--12--|10-10-10-10-|10--10--10--10--|
A|10--10----------|------------|----------------|
E|----------------|------------|----------------|

E|10---10---|6---6---|9---9-----|
B|---6----6-|--8---8-|--5---5---|
G|--7-7--7-7|-9-9-9-9|-6-6-6--6-|
D|8--8-8--8-|8-8-8-8-|7-7-7-7---|
A|----------|--------|----------|
E|----------|--------|----------|

E|5---5---|--------|--------|---------|
B|--6---6-|8---8---|6---6---|5---5----|
G|-7-7-7-7|--6---6-|--7---7-|-0-0-0-0-|
D|--------|-8-8-8-8|-7-7-7-7|--8---8--|
A|8-8-8-8-|7-7-7-7-|5-5-5-5-|7-7-7-7--|
E|--------|--------|--------|---------|

Отсюда соло-гитара:
E|-----------------------------------------------------------|
B|-------------------------------------------------10--------|
G|--10------9-------------------7--------------------1211...-|
D|----131211---11--131210913--9--108710-7--10----------------|
A|10---------12-------------10---------9-----131213----------|
E|---------------10------------8---------10------------------|

E|17--------------|--|15--------------|---|
B|--181718--181718|--|--17151713171517|---|
G|--------17------|0/|----------------|0/-|
D|----------------|/0|----------------|/0-|
A|----------------|--|----------------|---|
E|----------------|--|----------------|---|

E|13151312--------|--------131713-------------------|
B|--------151312--|------15------15-----------------|
G|--------------14|161216--------------------14-----|
D|----------------|------------------------15--15---|
A|----------------|----------------14--1417------17-|
E|----------------|------------------15-------------|

E|--------121512-------------------|
B|------13------13-----------------|
G|151215--------------------12-----|
D|------------------------14--14---|
A|----------------13--1315------15-|
E|------------------15-------------|

E|----------13--------------------|
B|------1315--15------------------|
G|14--14--------15----------------|
D|--15--------------------121512--|
A|----------------12--1215------13|
E|------------------13------------|

E|-------9129-------------------|
B|-----11----11-----------------|
G|12912-------------------------|
D|---------------------111411---|
A|-------------10--1013------13-|
E|---------------12-------------|

E|-----6----------|------10-----------|---|----696----------|
B|---58-85--------|---610--106--------|---|---8---8---------|
G|6-6-------------|7-7-------------7--|0//|969----------6---|
D|-7----------585-|-7-------------7-7-|//0|-----------58-85-|
A|--------4-47---7|-----------5058---8|---|--------747------|
E|---------5------|-------------------|---|-----------------|

E|--------101310------------|---|-------9129-------------------|
B|--------------------------|---|-----11----11-----------------|
G|10--1014------14-----7107-|0//|12912-------------------------|
D|--12----------------7----7|//0|---------------------111411---|
A|----------------8--8------|---|-------------10--1013------13-|
E|-----------------10-------|---|---------------12-------------|

E|----------13----|----------------|
B|--------15--15--|----------------|
G|14--1418------14|151915----------|
D|--15------------|------17151915--|
A|----------------|--------------17|
E|----------------|----------------|

E|----------|------------------------|---|
B|----------|------------------------|---|
G|-7--------|--------151412--12------|0/-|
D|8-8---7---|1211--11------15--151412|/0-|
A|---108-8--|----14------------------|---|
E|--------10|------------------------|---|

E|--------------1312------|
B|--------121415----15...-|
G|----1214----------------|
D|1415--------------------|
A|------------------------|
E|------------------------|

E|--151718-------------------------------|
B|18------------15--151618---------------|
G|--------141517--17----------1415141517-|
D|------------------------1517-----------|
A|---------------------------------------|
E|---------------------------------------|

E|---------------------------|
B|15--------------13---------|
G|--1412----121415--12-------|
D|------1513----------151312-|
A|---------------------------|
E|---------------------------|

E|---------------------------------------|
B|---------------------------------------|
G|--121415-------------------------------|
D|15------------12--121315---------------|
A|--------121315--15----------1213121315-|
E|------------------------1315-----------|

E|---------------------------|
B|---------------------------|
G|---------------------------|
D|12------------121312-------|
A|--151312--1315------151312-|
E|--------15-----------------|

E|---------------------------|
B|---------------------------|
G|------11----------121415..-|
D|--1214--1312----15---------|
A|15----------1513-----------|
E|---------------------------|

E|--------------------------------|
B|--------------------------------|
G|--------------------------------|
D|-----------7--7------979--------|
A|1081077--7--10-8878-----10108107|
E|-------10-8--------10-----------|

E|-------------------------------------------|
B|----------------------8--8-----------------|
G|------7--7-979--109107-10-9------7--7------|
D|109107-10-9---10-----------109107-10-96-6--|
A|---------------------------------------9-7-|
E|-------------------------------------------|

E|-------------------------------------------------578...-|
B|------------------------------------------------8-------|
G|--------------------------------------------------------|
D|109107-----979-7--7-6-6-----------------5---75----------|
A|------878-------10---8-7----532-75--875--875--87--------|
E|---------10---8----7----8754---5--87---8----------------|
Добавлено: 16.07.2015
Другие материалы по этой песне:
  • Аккорды и текст

Страница создана 16.07.2015
http://primanota.ru/iogann-sebastyan-bax/tokata-i-fuga-dm-chords.htm
Привет, Гость.
Предлагаем пройти революционный курс по гитаре.
Подарок от PrimaNota.Ru, забирай!