PrimaNota.ru - самый крупный в мире бесплатный архив песенных текстов, аккордов, табулатур и нот


Иоганн Себастьян Бах - Тетрадь Анны Магдалены - аккорды и текст, видео

Регистрация Запомнить меня
Войти через:  Facebook Google Twitter Vk Yandex Mail.ru

Иоганн Себастьян Бах - Тетрадь Анны Магдалены - аккорды и текст, видео

Печатать
Просмотров: 115
Тетрадь Анны Магдалены
Иоганн Себастьян Бах
E|--------|-----------------------|-----------------------|
B|--------|--3--------------0--2--|--3--------------0--2--|
G|--2----|-------2---------------|-------2---------------|
D|-------|--0----5----4----2-----|--0----5----4----2-----|
A|--------|-----------------------|-----------------------|
E|--------|-----------------------|-----------------------|
 
E|----0--2--3--5--3--2--0-|-2-------------2--0-|-2-------------|
B|-3----------------------|------3-------------|----3------0---|
G|------------------------|--------------------|-------------2-|
D|-4-----0----------------|------0-----0--0----|----0---0--0---|
A|-------------4-----0----|---------4----------|------4--------|
E|------------------------|--------------------|---------------|

E|-----0-----------|-------------------|-----------------------|
B|-0---------3-2-0-|-------3--0--------|------------2-----2--5-|
G|---1-------------|-2---------------2-|-2-------2-----2-------|
D|-----0---0---0---|----4-----0---2----|------2----------------|
A|-------4---------|-4-----------------|-0----0-----0-----0----|
E|-----------------|-------------------|-----------------------|

E|--5---------------||
B|------------------||
G|------------2----||
D|-------2---------||
A|--0---------------||
E|------------------||

E|--------|--5--------------------|--5----0---------2--4--|
B|---5----|-------5---------7--9--|-----------------------|
G|-------|-------7----6----------|-----------------------|
D|-------|--7--------------9-----|--7----0---------------|
A|--------|-----------------------|------------4----2-----|
E|--------|-----------------------|-----------------------|

E|-5--3--2--0--2--3--0-|-2---------------|------0--2--3--------|
B|---------------------|-----3-------0-1-|-0-3-----------0-2-3-|
G|---------------------|-----------2-----|-0-------------------|
D|---------------------|-0---0-2-4---0---|---------------------|
A|-0--2-----4-----0----|-----------------|---------------------|
E|---------------------|-----------------|-3----------0----3---|

E|--------2--3--5-----------|-----3--7--5-3--2--0-----|
B|--2--5-----------2/-3--5--|--3--------------------3--|
G|--2-----------------3-----|--4-----0-----------0-----|
D|--------------------------|--------------2-----------|
A|--0-----------------------|--------------------------|
E|--------------2-----------|--------------------------|

E|--------------------------|--------------------0-----|
B|--2-----------------3-----|--0--------------0-----0--|
G|--2-----2--------------2--|-----2--0-----0-----------|
D|-----------5--4--2--4-----|-----------4--------------|
A|-----0-----------------5--|--------------------------|
E|--------------------------|--3-----------------3-----|

E|-------------2--3-|-5-----2--0------|------------2-----2--5-|
B|-2-----2-3-5------|----3-------3--2-|-3-------3-----3--------|
G|---2-4------------|-----------------|------2-----------------|
D|------------------|-----------------|-0----0-----0-----0-----|
A|-0----------------|----2-------0----|------------------------|
E|-------------3----|-2-----3---------|------------------------|

E|--10---------------||
B|-------------3-----||
G|--------2---------||
D|--0---------------||
A|-------------------||
E|-------------------||

E|--10---------------||
B|-------------------||
G|------------(7)---||
D|--0---(7)---------||
A|-------------------||
E|-------------------||
Добавлено: 16.07.2015
Другие материалы по этой песне:
  • Аккорды и текст

Страница создана 16.07.2015
http://primanota.ru/iogann-sebastyan-bax/tetrad-anny-magdaleny-chords.htm
Привет, Гость.
Предлагаем пройти революционный курс по гитаре.
Подарок от PrimaNota.Ru, забирай!