PrimaNota.ru - самый крупный в мире бесплатный архив песенных текстов, аккордов, табулатур и нот


Иоганн Себастьян Бах - Prelude, BMV 999 - аккорды и текст, видео

Регистрация Запомнить меня
Войти через:  Facebook Google Twitter Vk Yandex Mail.ru

Иоганн Себастьян Бах - Prelude, BMV 999 - аккорды и текст, видео

Печатать
Просмотров: 82
Prelude, BMV 999
Иоганн Себастьян Бах
E|-------5-----------------|-------5-----------------|
B|-----6---6---6-----------|-----6---6---6-----------|
G|---7-------7---7---7---7-|---7-------7---7---7---7-|
D|-0---------------7-------|-0---------------7-------|
A|---------------------8---|---------------------8---|
E|-------------------------|-------------------------|

E|-------6-----------------|-------6-----------------|
B|-----8---8---8-----------|-----8---8---8-----------|
G|---7-------7---7---7---7-|---7-------7---7---7---7-|
D|-0---------------8---5---|-0---------------8---5---|
A|-------------------------|-------------------------|
E|-------------------------|-------------------------|

E|-------3-----------------|-------3-----------------|
B|-----5---5---5-----2---2-|-----5---5---5-----2---2-|
G|---6-------6---6-3-------|---6-------6---6-3-------|
D|-0-------------------5---|-0-------------------5---|
A|-------------------------|-------------------------|
E|-------------------------|-------------------------|

E|-------1-----------------|-------1-----------------|
B|-----3---3---3-----------|-----3---3---3-----------|
G|---2-------2---2---2---2-|---2-------2---2---2---2-|
D|-0---------------3---0---|-----------------3---0---|
A|-------------------------|-3-----------------------|
E|-------------------------|-------------------------|

E|-------1-----------------|-------1-----------------|
B|-----3---3---3-----------|-----3---3---3-----------|
G|---2-------2---2---2---2-|---2-------2---2---2---2-|
D|-----------------3---0---|-----------------3---0---|
A|-1-----------------------|-0-----------------------|
E|-------------------------|-------------------------|

E|-------1-----------------|-------1-----------------|
B|-----3---3---3-----------|-----3---3---3-----0---0-|
G|---4-------4---4---4---4-|---4-------4---4-1-------|
D|-----------------3---0---|---------------------2---|
A|-------------------------|-------------------------|
E|-4-----------------------|-4-----------------------|

E|-------0-----------------|-------0-----------------|
B|-----1---1---1-----------|-----1---1---1-----------|
G|---4-------4---4---4---4-|---2-------2---2---2---2-|
D|-----------------2-------|-------------------------|
A|-0-------------------3---|-0---------------3---0---|
E|-------------------------|-------------------------|

E|-------5-----------------|-------5-----------------|
B|-----5---5---5-----1---1-|-----6---6---6-----------|
G|---5-------5---5-2-------|---4-------4---4---4---4-|
D|---------------------3---|-0---------------0-------|
A|-------------------------|---------------------2---|
E|-1-----------------------|-------------------------|

E|-------4-----------------|-------4-----------------|
B|-----3---3---3-----------|-----3---3---3-----------|
G|---4-------4---4---4---4-|---4-------4---4---4---4-|
D|-----------------2-------|-----------------2-------|
A|---------------------2---|---------------------2---|
E|-0-----------------------|-0-----------------------|

E|-------5-----------------|-------7-----------------|
B|-----5---5---5-----------|-----9---9---9-----------|
G|---5-------5---5---5---5-|---7-------7---7---7---7-|
D|-------------------------|---------------------0---|
A|-----------------7-------|-----------------8-------|
E|-0-------------------8---|-0-----------------------|

E|-------8-----------------|-------10----------------|
B|-----10--10--10----------|-----9---9---9-----------|
G|---9-------9---9---9---9-|---9-------9---9---9---9-|
D|-----------------7-------|-----------------9-------|
A|---------------------7---|---------------------11--|
E|-0-----------------------|-0-----------------------|

E|-------8-----------------|-------7-----------------|
B|-----10--10--10----------|-----6---6---6-----------|
G|---8-------8---8---8---8-|---7-------7---7---7---7-|
D|-----------------7-------|-----------------6-------|
A|---------------------8---|---------------------7---|
E|-0-----------------------|-0-----------------------|

E|-------5-----------------|-------5-----------------|
B|-----7---7---7-----------|-----3---3---3-----------|
G|---5-------5---5---5---5-|---4-------4---4---4---4-|
D|-----------------4-------|-----------------3---0---|
A|---------------------6---|-------------------------|
E|-0-----------------------|-0-----------------------|

E|-------4-----------------|-------2-----------------|
B|-----3---3---3-----------|-----1---1---1-----------|
G|---4-------4---4---4---4-|---2-------2---2---2---2-|
D|-----------------2-------|-----------------1-------|
A|---------------------2---|---------------------3---|
E|-0-----------------------|-0-----------------------|

E|-------1-----------------|-------0-----------------|
B|-----0---0---0-----------|-----1---1---1-----------|
G|---1-------1---1---1---1-|---2-------2---2---2-----|
D|-----------------0-------|-----------------------2-|
A|---------------------2---|-----------------3---0---|
E|-0-----------------------|-0-----------------------|

E|-------------------------|-------------------------|
B|-------3-----------------|-------3-----------------|
G|-----4---4---4-----2---2-|-----4---4---4-----1---1-|
D|---7-------7---7-3---0---|---6-------6---6-2-------|
A|-------------------------|---------------------2---|
E|-0-----------------------|-0-----------------------|

E|-------------------------|-------------------------|
B|-------3-----------------|-------3-2---2-----------|
G|-----4---4---4-----1---1-|-----4-----2---2---2---2-|
D|---6-------6---6-3---0---|---7-------------2-------|
A|-0-----------------------|-0-------------------4---|
E|-------------------------|-------------------------|

E|-------4-----------------|-------7-----------------|
B|-----3---3---3-----------|-----9---9---9-----------|
G|---4-------4---4---4---4-|---7-------7---7---7---7-|
D|-----------------3---0---|---------------------0---|
A|-0-----------------------|-0---------------8-------|
E|-------------------------|-------------------------|

E|-------5-----------------|-------3-----------------|
B|-----5---5---5-----------|-----5---5---5-----2---2-|
G|---6-------6---6---6---6-|---6-------6---6-3---0---|
D|-----------------7-------|-------------------------|
A|-0-------------------7---|-0-----------------------|
E|-------------------------|-------------------------|

E|-------1-----------------|-------1-----------------|
B|-----3---3---3-----------|-----3---3---3-----------|
G|---2-------2---2---2---2-|---1-------1---1---1---1-|
D|-----------------3---0---|-----------------3---0---|
A|-0-----------------------|-0-----------------------|
E|-------------------------|-------------------------|

E|-------1-----------------|-------0-------0---------|
B|-----3---3---3-----------|-----2---2---2--/6---9---|
G|---1-------1---1---1---1-|---2-------2-------7-----|
D|-----------------3---0---|-------------------------|
A|-0-----------------------|-0-----------------------|
E|-------------------------|-------------------------|

E|-5-|
B|-5-|
G|-6-|
D|---|
A|-0-|
E|---|
Добавлено: 24.10.2015
http://primanota.ru/iogann-sebastyan-bax/prelude-bmv-999-chords.htm
Привет, Гость.
Предлагаем пройти революционный курс по гитаре.
Подарок от PrimaNota.Ru, забирай!