PrimaNota.ru - самый крупный в мире бесплатный архив песенных текстов, аккордов, табулатур и нот


Иоганн Себастьян Бах - Gigue Partita #2 - аккорды и текст, видео

Регистрация Запомнить меня
Войти через:  Facebook Google Twitter Vk Yandex Mail.ru

Иоганн Себастьян Бах - Gigue Partita #2 - аккорды и текст, видео

Печатать
Просмотров: 30
Gigue Partita #2
Иоганн Себастьян Бах
E|--------||----------0-1-0-3p1p0----------|
B|--------||--------3-------------3-2------|
G|---2----||------2-------------------2----|
D|--------||--0h3-----------------------2--|
A|--------||-------------------------------|
E|--------||-------------------------------|
 
E|-------0h1-3-1-5p3p1------------|
B|---------------------5-3--------|
G|-----2-------------------2------|
D|---2-----------------------3----|
A|-4------------------------------|
E|--------------------------------|

E|------------6-5---------------------5-----------|
B|----6p5---6-----8-6-5-------5-----5---8-6-5-----|
G|--------7-------------7-5-7---7-5-----------7-5-|
D|-0----------------------------------------------|
A|------------------------------------------------|
E|------------------------------------------------|

E|------------3------------------------------------|
B|----3-----3---6-5-3-2--------2-----2-5-3-2-------|
G|3-5---5-3-------------4-2--4---4-2---------4-2---|
D|-----------------------------------------------5-|
A|-------------------------------------------------|
E|-------------------------------------------------|

E|------------------------------------------|---------|
B|----------------3-2-------------------5-6-|-8-5-----|
G|---2p0------------------------2-3-5-7-----|-----5---|
D|-3-----3p2p0---------0--2-3-5-------------|-------5-|
A|-------------0----------------------------|---------|
E|------------------------------------------|---------|

E|---------------------------------------------|
B|----------------------------------------8-10-|
G|-----5---------------------------7-9-10------|
D|---5---5-------5-7-5------7-8-10-------------|
A|-7-------7---7-------8-10--------------------|
E|-----------8---------------------------------|

E|-6----6-10-----5---5-8-------------6-----------5-----|
B|---10------5-8---8--------6-8--6-8-----5-6-5-6---8-6-|
G|------------------------7------------5---------------|
D|-----------------------------------------------------|
A|-----------------------------------------------------|
E|-----------------------------------------------------|

E|---------------------------------------------------|
B|-5---5-6-5---------------------6-------------------|
G|---7-------7-5---5-7-5-------5---5---------5-------|
D|---------------8-------8-7h8-------7---5h7---7-----|
A|-------------------------------------8---------8---|
E|---------------------------------------------------|

E|---------------------------------------6---------|
B|-------------------------------------8---8-------|
G|-----------------------------------7-------7-----|
D|-------8-----------------------5-8-----------8-5-|
A|-5h6h8---8-5-----5-8-5-------5-------------------|
E|-------------6h8-------6-3-6---------------------|

E|-----------6-------6---6------------5-------5---5-|
B|-------5-8----------------------5-6---------------|
G|-----5-------5---5---5--------5-------5---5---5---|
D|---5-----------8------------7-----------8---------|
A|-7------------------------8-----------------------|
E|--------------------------------------------------|

E|-----------6-------6---6------------5-------5---5-|
B|-------5-8----------------------5-6---------------|
G|-----5-------5---5---5--------5-------5---5---5---|
D|---5-----------8------------7-----------8---------|
A|-7------------------------8-----------------------|
E|--------------------------------------------------|

E|-------5-6-10-------10---10-------------8--------8---8-|
B|-----6-----------------------------8-10----------------|
G|---7----------9-7-9----9---------9--------7----7---7---|
D|-8--------------------------7-10------------10---------|
A|-------------------------------------------------------|
E|-------------------------------------------------------|

E|-----------6--------6---6-----------5-------5-----|
B|-------6-8----------------------5-6-----------6---|
G|-----7-------5---5----5-------5-------5---5-----7-|
D|-5-8-----------8------------7-----------8---------|
A|--------------------------8-----------------------|
E|--------------------------------------------------|

E|------------------------------------------------|
B|----------------------------------------------5-|
G|-------5-7---------------------------------5----|
D|-8-7-8-----8-5---5-7-8-5---------5-------5------|
A|---------------8---------7-5-7-8---7---7--------|
E|-------------------------------------8----------|

E|-------------------------------------------7-5-|
B|-----------------------------------------6-----|
G|-------------------------------7-6-7---7-------|
D|-8-7-5-------------5---------7-------7---------|
A|-------8-7-5-4-------7-8-5-8-------------------|
E|---------------7-5-----------------------------|

E|-7-----------------------------------5-4-5h7h8---5-8-|
B|---6-5-----------------------------5-----------8-----|
G|-------7-5-4-------------7-4-5---5-------------------|
D|-------------7-6-4-------------7---------------------|
A|-------------------7---------------------------------|
E|-----------------------------------------------------|

E|-----5-----5-------------------------------7--|
B|-6h8---5-6-----5h6-----6----------------------|
G|-------------7-----6-7----------6-7h9h10-7---7|
D|-------------------------6--7-9---------------|
A|----------------------------------------------|
E|----------------------------------------------|

E|---------5-----------4-----------5------------7----|
B|-----5-----------------------5---------------------|
G|-5h7---5---5-4h5h7-4---4-5h7---5---5-7h9h10-7---7--|
D|---------------------------------------------------|
A|---------------------------------------------------|
E|---------------------------------------------------|
Добавлено: 24.10.2015
http://primanota.ru/iogann-sebastyan-bax/gigue-partita-2-chords.htm
Привет, Гость.
Предлагаем пройти революционный курс по гитаре.
Подарок от PrimaNota.Ru, забирай!