PrimaNota.ru - самый крупный в мире бесплатный архив песенных текстов, аккордов, табулатур и нот


Иоганн Себастьян Бах - Гавот в форме рондо из 6-ой сюиты для скрипки - аккорды и текст, видео

Регистрация Запомнить меня
Войти через:  Facebook Google Twitter Vk Yandex Mail.ru

Иоганн Себастьян Бах - Гавот в форме рондо из 6-ой сюиты для скрипки - аккорды и текст, видео

Печатать
Просмотров: 200
Гавот в форме рондо из 6-ой сюиты для скрипки
Иоганн Себастьян Бах
E||--------0----|--0---------------1---|--1--------3--0--1----|
B||-------------|-------3--1--3--------|--0-----------------3-|
G||--0---------|--2----------2----2---|--0-------------------|
D||--2---------|--3----------3----0---|----------------------|
A||---3---------|----------------------|----------------------|
E||-------------|----------------------|----------------------|
 
E|-------0-1-----0-----------|-----------------------0-|
B|-----3------3-----1--3--0--|--1-----------------1----|
G|--0------------------0-----|-----0-----------0-------|
D|---------------------------|--------2-----2----------|
A|--2------------3-----------|--3--------3-------------|
E|---------------------------|-------------------------|

E|----0-----------0--1----|-1-------------0-|------------------|
B|-------3--1--3--------3-|-0---------------|------3---------0-|
G|-2-----------2----------|-0--------0------|-2---------0------|
D|-3-----------3----------|-----------------|-3--------------3-|
A|------------------------|----------3------|-----------2------|
E|------------------------|-----------------|-1----------------|

E|-----||------0-|-----------------------|-------------------0-|
B|-1---||--------|---------------1--0----|-------------0--1----|
G|----||-0------|-2----2--1--2--------1-|-1---2----2----------|
D|-2--||--------|-3----------2----------|-0-------------------|
A|-3---||-3------|-----------------------|----------3----------|
E|-----||--------|-----------------------|---------------------|

E|-----------1--------------|-------------------------|
B|-----0--1-----0--3--1-----|-----0-------------------|
G|--2--------------------2--|--1-----------------2--5-|
D|--0-----------0-----1-----|--2-----2--0-----2-------|
A|--------------------------|--------------3----------|
E|--------------------------|-------------------------|

E|-0--1--3-------0-3-|-3-0-1---------------|-------------------|
B|-------------------|--------3--------0-3-|-3--0--1-----------|
G|---------2---2-----|--------------1------|----------2------1-|
D|-------------------|-0---------3---------|-0-----------2-----|
A|-0---------4-------|---------------------|-------------------|
E|-------------------|---------------------|-----------------0-|

E|---|------0--|--0---------------1----|--1--------3--0--1----|
B|---|---------|-------3--1--3---------|--0-----------------3-|
G|-2-|-0-------|--2----------2----2----|--0-------------------|
D|-2-|-2-------|--3----------3----0----|----------------------|
A|-0-|-3-------|-----------------------|----------------------|
E|---|---------|-----------------------|----------------------|

E|-------0-1-----0-----------|-----------------------0-|
B|-----3------3-----1--3--0--|--1-----------------1----|
G|--0------------------0-----|-----0-----------0-------|
D|---------------------------|--------2-----2----------|
A|--2------------3-----------|--3--------3-------------|
E|---------------------------|-------------------------|

E|----0-----------0--1----|-1-------------0-|------------------|
B|-------3--1--3--------3-|-0---------------|------3---------0-|
G|-2-----------2----------|-0--------0------|-2---------0------|
D|-3-----------3----------|-----------------|-3--------------3-|
A|------------------------|----------3------|-----------2------|
E|------------------------|-----------------|-1----------------|

E|---|------------|-----------------------|--------------------|
B|-1-|------------|------------------1----|--------------------|
G|---|------------|-0----0-----0----------|-0----------2---4-5-|
D|-2-|----0--2--3-|---------0--2--0--2--0-|-2--0--2------3-----|
A|-3-|-3----------|------3----------------|----------3---------|
E|---|------------|-----------------------|--------------------|

E|-----------------|-----------------0-|-----(3)----------3----|
B|-----------------|--------------1----|-3----3-----3----------|
G|-0---4-5-----4-5-|-----------0-------|------0--2--4--2--4--2-|
D|---2-----3-------|-2-0---0-2---------|-----------------------|
A|-----------5-----|-----3-------------|-----------------------|
E|-----------------|-------------------|-----------------------|

E|--------------0-----2--3--|--------2--3--------2--3-|
B|--3--------------1--------|--3-----------1----------|
G|--4--2--4--0--------------|-----4-----------2-------|
D|--------------------------|-------------------------|
A|--------------------------|-------------------------|
E|--------------------------|-------------------------|

E|------------------------|--------------------|----------5----|
B|-1--0--------1-----1----|-1---------1----1---|-1--7----------|
G|-------2--0--2--4-----4-|-2--0---0--2--4---2-|-------5-----5-|
D|------------------------|------4-------------|-0-------------|
A|------------------------|--------------------|---------------|
E|------------------------|--------------------|---------------|

E|-------------------5----|----------------|-------------------|
B|-------7-----7----------|--------------0-|-0---------------1-|
G|----5-----5-----5-----5-|-5--------------|------2--0--2------|
D|------------------------|---------0------|-------------------|
A|-5----------------------|-5--------------|-3-----------------|
E|------------------------|---------3------|-------------------|

E|-------------------------|------------------------|----|
B|--1----------------3-----|------------------------|----|
G|-------4--2--4--5-----4--|-----------5--2------0--|--0-|
D|--0----------------------|--5--2--------0---------|--0-|
A|-------------------------|--------3---------------|----|
E|-------------------------|------------------------|--3-|

E|--------0----|--0---------------1----|--1--------3--0--1----|
B|-------------|-------3--1--3---------|--0-----------------3-|
G|---0---------|--2----------2----2----|--0-------------------|
D|---2---------|--3----------3----0----|----------------------|
A|---3---------|-----------------------|----------------------|
E|-------------|-----------------------|----------------------|

E|-------0-1-----0-----------|-----------------------0-|
B|-----3------3-----1--3--0--|--1-----------------1----|
G|--0------------------0-----|-----0-----------0-------|
D|---------------------------|--------2-----2----------|
A|--2------------3-----------|--3--------3-------------|
E|---------------------------|-------------------------|

E|----0-----------0--1----|-1-------------0-|------------------|
B|-------3--1--3--------3-|-0---------------|------3---------0-|
G|-2-----------2----------|-0--------0------|-2---------0------|
D|-3-----------3----------|-----------------|-3--------------3-|
A|------------------------|----------3------|-----------2------|
E|------------------------|-----------------|-1----------------|

E|------------|--------------|-------------------------|
B|--1---------|-----------1--|-----1-------------------|
G|------------|--------0-----|--------3--2--3--------3-|
D|--2---------|-----2--------|--0--------------0--2----|
A|--3---------|--3-----------|-------------------------|
E|------------|--------------|-------------------------|

E|-----------------------1--|-----1--0-----0-----------|
B|--------------------3-----|-----------3-----2--3-----|
G|--2--0-----------2--------|--0--------------------1-|
D|--------3--2--0-----------|--------------------------|
A|--------------------------|--------------------------|
E|--------------------------|--------------------------|

E|--------------0--1--3--0--|--1----------------------|
B|-----3--2--3--------------|-----------------------1-|
G|--2-----------------------|-----2-----------0--2----|
D|--------------------------|--------0--2--3----------|
A|--------------------------|-------------------------|
E|--------------------------|-------------------------|

E|--------------------------|-------------------------|
B|--------------------------|-------------------------|
G|--3-----------------------|-----0--------------0--3-|
D|-----0--------------0--3--|--2--------0--2--3-------|
A|-----------0--1--3--------|--------3----------------|
E|--------3-----------------|-------------------------|

E|--------------------------|-------------------------|
B|--------------3--2--3-----|--------1--4--3--1-------|
G|--2--0-----2-----------2--|-----2--------------3--2-|
D|--------3-----------------|--4----------------------|
A|--------------------------|-------------------------|
E|--------------------------|-------------------------|

E|--------------3--2--3-----|--------3--6-5--3-------|
B|-----------3-----------3--|--------------------6--5-|
G|--3--2--0-----------------|-----2-------------------|
D|--------------------------|-------------------------|
A|--------------------------|--4----------------------|
E|--------------------------|-------------------------|

E|--1--0-----1--------1--0--|--------0----------------|
B|--------3-----------------|-----------3--------3--1-|
G|--------------0--3--------|-----2-----------0-------|
D|--------------------------|--3-----------2----------|
A|--------------------------|-------------------------|
E|--------------------------|-------------------------|

E|--------------------------|------------------------|----|
B|--------1-----------------|--------3--5--5------3--|--3-|
G|-----------3-----3-2-----|-----2--------2---------|--2-|
D|--0--3/-------4--------5--|--4---------------------|--0-|
A|--------------------------|------------------------|----|
E|--------------------------|------------------------|----|

E|--------0----|--0---------------1----|--1--------3--0--1----|
B|-------------|-------3--1--3---------|--0-----------------3-|
G|---0---------|--2----------2----2----|--0-------------------|
D|---2---------|--3----------3----0----|----------------------|
A|---3---------|-----------------------|----------------------|
E|-------------|-----------------------|----------------------|

E|-------0-1-----0-----------|-----------------------0-|
B|-----3------3-----1--3--0--|--1-----------------1----|
G|--0------------------0-----|-----0-----------0-------|
D|---------------------------|--------2-----2----------|
A|--2------------3-----------|--3--------3-------------|
E|---------------------------|-------------------------|

E|----0-----------0--1----|-1-------------0-|------------------|
B|-------3--1--3--------3-|-0---------------|------3---------0-|
G|-2-----------2----------|-0--------0------|-2---------0------|
D|-3-----------3----------|-----------------|-3--------------3-|
A|------------------------|----------3------|-----------2------|
E|------------------------|-----------------|-1----------------|

E|----|
B|--1-|
G|----|
D|--2-|
A|--3-|
E|----|

E||-------------|---------------------|
B||--5--3--5----|-------------3-1/-3--|
G||--5--4--5----|--2-1/-2----4-2/-4---|
D||-------------|--3-2/-3-------------|
A||-------------|---------------------|
E||-------------|---------------------|

E|-----------------|------------------------|------------------|
B|---------------1-|----------3-----------5-|-5----------------|
G|-1----------2----|-------4-----------6----|----7--5--4--5----|
D|-2-------2-------|----3-----------5-------|-------4--------7-|
A|------3----------|-5-----------7----------|-8----------------|
E|-----------------|------------------------|------------------|

E|--------------------|---------------------|------------------|
B|-0-----1----0-----3-|-1--0--------0-----0-|-5--4--5----------|
G|----0----------2--2-|-0-----2--0-----2----|-4--------2--1--2-|
D|-------2----------0-|-0-----------0-------|------------------|
A|------------3-------|---------------------|-3--------3-------|
E|--------------------|-3-----------3-------|------------------|

E|-2-----0-----0--3-|-0-----0--3--0-----0--3-|-0-----------0---|
B|----------4-------|----4--------0--4-------|-1---1-------1---|
G|-2-----0----------|-2----------------------|---2---2---2---2-|
D|------------------|------------------------|---------2-------|
A|-2----------------|------------------------|-----------------|
E|------------------|------------------------|-----------------|

E|--0-----------------0-----|--0-----------------0----|
B|--0-----0-----------0-----|--1-----1-----------1----|
G|-----0-----0-----0-----0--|-----2-----2-----2-----2-|
D|--------------2-----------|--------------2----------|
A|--------------------------|-------------------------|
E|--------------------------|-------------------------|

E|--0-----------------0-----|-------------------------|
B|--0-----0-----------0-----|--1-----1--------1-----1-|
G|-----0-----0-----0-----0--|--2--4-----4--2-----0----|
D|--------------2-----------|--------------------2----|
A|--------------------------|-------------------------|
E|--------------------------|-------------------------|

E|--------------------------|-------------------------|
B|--------------------------|-------------------------|
G|-----0--2--0-----2--------|--------------------2--4-|
D|--4-----------4--------4--|--------1--2--4--5-------|
A|--6-----------------6-----|--2--4-------------------|
E|--------------------------|-------------------------|

E|--------------------------|--------------------2--5-|
B|--------------------------|-----------------4-------|
G|--5--4--3--4--5--3-2--3--|--------2--5--4----------|
D|--------------------------|--1--4-------------------|
A|--------------------------|-------------------------|
E|--------------------------|-------------------------|

E|--3--2---------------------------|-----------|-------0-|
B|-------5-4--5--------------------|-----------|---------|
G|---------------0--2--4--2--0-----|-----------|--0------|
D|------------------------------4--|--2--------|--2------|
A|---------------------------------|-----------|--3------|
E|---------------------------------|-----------|---------|

E|-0---------------1-|-1--3--0--1----|------0-1-----0----------|
B|------3--1--3------|-0-----------3-|----3------3-----1--3--0-|
G|-2----------2----2-|-0-------------|-0------------------0----|
D|-3----------3----0-|---------------|-------------------------|
A|-------------------|---------------|-2------------3----------|
E|-------------------|---------------|-------------------------|

E|----------------0-|----0-----------0--1----|-1-------------0-|
B|-1------------1---|-------3--1--3--------3-|-0---------------|
G|----0-------0-----|-2-----------2----------|-0--------0------|
D|------2---2-------|-3-----------3----------|-----------------|
A|-3------3---------|------------------------|----------3------|
E|------------------|------------------------|-----------------|

E|----------------------|----|
B|-------3---------0----|--1-|
G|--2---------0---------|----|
D|--3--------------3----|--2-|
A|------------2---------|--3-|
E|--1-------------------|----|

E|--------------------------|-------------------------|
B|--5-----------------5-----|--5-----------------5----|
G|--5-----5-----------5-----|--4-----4-----------4----|
D|-----7-----7-----7-----7--|-----5-----5-----5-----5-|
A|--------------7-----------|--------------7----------|
E|--------------------------|-------------------------|
Добавлено: 24.10.2015
Другие материалы по этой песне:
  • Аккорды и текст

Страница создана 24.10.2015
http://primanota.ru/iogann-sebastyan-bax/gavot-v-forme-rondo-iz-6-oi-syuity-dlya-skripki-chords.htm
Привет, Гость.
Предлагаем пройти революционный курс по гитаре.
Подарок от PrimaNota.Ru, забирай!