PrimaNota.ru - самый крупный в мире бесплатный архив песенных текстов, аккордов, табулатур и нот


Иоганн Себастьян Бах - Bourree - аккорды и текст, видео

Регистрация Запомнить меня
Войти через:  Facebook Google Twitter Vk Yandex Mail.ru

Иоганн Себастьян Бах - Bourree - аккорды и текст, видео

Печатать
Просмотров: 63
Bourree
Иоганн Себастьян Бах
e|--0--2---#|---3----2--0--------0--2--|-----------------------|
B|---------#|---------------4----------|--0----2--4--5----3--1-|
G|---------#|--------------------------|-----------------------|
D|---------#|--------------------------|-----------------------|
A|---------#|--------0------2----0-----|-----------------------|
E|--3--2---#|---0----------------------|--3----2-----0----2----|
 
e|------------------|------------------0--2-|-3--2--0-----0--2-|
B|-0----------------|-0---------------------|----------4-------|
G|----2--0-----0--2-|----2--0---------------|------------------|
D|----------4-------|----------4-2----------|------------------|
A|----0-----2--0----|-------2---------------|----0-----2--0----|
E|-3----------------|-3----------0--2--3--2-|-0----------------|

e|-----------------------|---------------------|-------0--2---|#
B|--0----2--4--5----3--1-|--0------------------|--------------|#
G|-----------------------|------2--0---------0-|-0------------|#
D|-----------------------|------------4--------|-0------------|#
A|-----------------------|------3-----5---5----|-2------------|#
E|--3----2-----0----2----|--3------------------|-3-----3--2---|#

e|---------------#|--------------------3----|-0----------------|
B|---------0-----#|---3-------1--0--------3-|-------3----------|
G|-0----------0--#|--2----2-----------------|----4-----5--4--2-|
D|-0-------------#|-------0-----------------|-------------0----|
A|-2-------------#|--------------------2----|-3----------------|
E|-3-------3-----#|---2----------3----------|----4-----5-------|

e|---------------------|-----------------------|----3---0------|
B|-----------1---------|------------------3----|-0----3------3-|
G|-1---2--4-------4--2-|-2-------------------2-|-----------4---|
D|-2---------2---------|-----------------------|---------------|
A|-----0---------------|-0--2--0---------------|----2---3------|
E|----------------0----|----------3--2----2----|-3---------4---|

e|----5--0----------|------------------|-----------------7-----|
B|-1--------7-----5-|----2-----------0-|-0------------------7--|
G|-------------6----|-7-----4--3-------|-----------------------|
D|----------0-------|----2-----4-------|-----------------------|
A|-0--4-------------|------------------|-2--1--2--4--6---------|
E|-------------6----|-7-----------2----|-----------------7-----|

e|-------------5----0--3--|#----2--|
B|--9----7--5-------------|#-------|
G|------------------------|#-------|
D|------------------------|#----0--|
A|--7----5-----4----0-----|#-------|
E|------------------------|#-------|
Добавлено: 24.10.2015
Другие материалы по этой песне:
  • Аккорды и текст

Страница создана 24.10.2015
http://primanota.ru/iogann-sebastyan-bax/bourree-chords.htm
Привет, Гость.
Предлагаем пройти революционный курс по гитаре.
Подарок от PrimaNota.Ru, забирай!