PrimaNota.ru - самый крупный в мире бесплатный архив песенных текстов, аккордов, табулатур и нот


Inxs - Viking Juice - текст песни, бас-таба, видео

Регистрация Запомнить меня
Войти через:  Facebook Google Twitter Vk Yandex Mail.ru

Inxs - Viking Juice - текст песни, бас-таба, видео

Печатать
Просмотров: 133
Уроки эстрадного вокала в Санкт-Петербурге
Авторы: Andrew Farriss, Michael Hutchence

Tabbed by: bassm99
E-mail: alanmatthews1966@yahoo.co.uk

Tuning: E, A, D, G

"Viking Juice" from the album "Full Moon, Dirty Hearts" (1993)
Written by Andrew Farriss/Michael Hutchence

Intro: (Play 8 Times)

G|----------------------------------------------------------------------------|
D|----------------------------------------------------------------------------|
A|----7-5-7-------------------------------------------------------------------|
E|--0-------------------------------------------------------------------------|

Verse:  

G|----------------------------------------------------------------------------|
D|--------------------7-5-7-(x4)----------------------------------------------|
A|----7-5-7-(x16)---0----------------7-5-7-(x4)---5\--0-0---------------------|
E|--0------------------------------0------------------------------------------|

Repeat Intro: (Play 4 Times)

Verse:  

G|----------------------------------------------------------------------------|
D|--------------------7-5-7-(x4)----------------------------------------------|
A|----7-5-7-(x20)---0----------------7-5-7-(x4)---5\--0-0---------------------|
E|--0------------------------------0------------------------------------------|

Repeat Intro: (Play Twice)

Verse:  

G|----------------------------------------------------------------------------|
D|--------------------7-5-7-(x4)----------------------------------------------|
A|----7-5-7-(x30)---0----------------7-5-7-(x4)---5\--0-0---------------------|
E|--0------------------------------0------------------------------------------|

Добавлено: 08.07.2015
Другие материалы по этой песне:
  • Аккорды и текст

Страница создана 29.04.2012
http://primanota.ru/inxs/viking-juice-chords.htm
Привет, Гость.
Предлагаем пройти революционный курс по гитаре.
Подарок от PrimaNota.Ru, забирай!