PrimaNota.ru - самый крупный в мире бесплатный архив песенных текстов, аккордов, табулатур и нот


Inxs - Underneath The Colours - текст песни, таба, видео

Регистрация Запомнить меня
Войти через:  Facebook Google Twitter Vk Yandex Mail.ru

Inxs - Underneath The Colours - текст песни, таба, видео

Печатать
Просмотров: 171
From the album "Underneath the colors" (1981)


This song is very simple and has actually one main riff which plays during all the song:
E|-5---5------8----8----7-|
B|-7---7------10-p-10-p-8-|
G|-7---7--p---------------|
D|-7---7------------------|
A|-5---7------------------|
E|------------------------|

In chorus the second guitar plays this (with distortion) two times:
E|------------------------|------------------------|
B|----7-----------\4------|----5-------------------|
G|------------------------|------------------------|


If you have any questions, please, e-mail me - anyone_out_there@i.ua :)
Добавлено: 19.08.2013
Другие материалы по этой песне:
  • Аккорды и текст

Страница создана 01.04.2012
http://primanota.ru/inxs/underneath-the-colours-chords.htm
Привет, Гость.
Предлагаем пройти революционный курс по гитаре.
Подарок от PrimaNota.Ru, забирай!