PrimaNota.ru - самый крупный в мире бесплатный архив песенных текстов, аккордов, табулатур и нот


Inxs - To Look At You - аккорды и текст, бас-таба, видео

Регистрация Запомнить меня
Войти через:  Facebook Google Twitter Vk Yandex Mail.ru

Inxs - To Look At You - аккорды и текст, бас-таба, видео

Печатать
Просмотров: 208
Уроки эстрадного вокала в Санкт-Петербурге
Авторы музыки: Andrew Farriss
Авторы текста: Andrew Farriss
To Look At You
Inxs
G:-----12----12----12----12---------------|
D:--10----10----10----10----(13-13-12-10)-|
A:----------------------------------------|
E:----------------------------------------|
(this goes with every chorus "C5 Eb5 Bb5")


E:-3--3-1-3-- (small lick where  G5* is)
 



E:------------------------------|
B:------------------------------|
G:------------------------------|
D:--8---7-----------------------|
A:--------8---5---10------------|
E:------------------------------| (5x)

What is the name to call

For a different kind of girl

Who knows the feelings

But never the words
G5*
To look at you            
G5
And never speak
G5*
Is so good                
G5
For me tonight    (2x)

C5  Eb5  Bb5
What is the name to call
C5  Eb5  Bb5
For a different kind of girl
C5  Eb5  Bb5
Who knows the feelings
And never the words

Bb5  F5  A5  G5

D:--8--7-----7------------------|
A:--------8-----10--------------|
E:------------------------------|


D:--8---7-----------------------|
A:--------8---5---10------------|
E:------------------------------|
Bb5             F5                 A5           G5
Who do you ask when there's no one left to turn to


D:--8--10-(10)--7---------------|
A:----------------10------------|
E:------------------------------|
Bb5             F5                 A5           G5
You ask me and I'll always try to hear

D:--8--7------------------------|
A:--------5---10----------------|
E:------------------------------|
Bb5             F5                 A5           G5
Past money and colors and make believe

D:--8--10--7----7---------------|
A:-----------8----10------------|
E:------------------------------|
Bb5             F5                 A5           G5
Good cheap values for a thrifty clown

G5*
To look at you
G5
And never speak
G5*
Is so good
G5
For me tonight   (3x)

C5  Eb5  Bb5
What is the name to call
C5  Eb5  Bb5
For a different kind of girl
Who knows the feelings
And never the words

G5*
What do you fear in the simple still of a summer's night
G5*
I understand I sympathize for a daydream
G5*
Fairy tales and I love you

C5  Eb5  Bb5
What is the name to call
C5  Eb5  Bb5
For a different kind of girl
C5  Eb5  Bb5
Who knows the feelings
And never the words
C5  Eb5  Bb5
To this Real life documentary 
C5  Eb5  Bb5
C5  Eb5  Bb5
C5  Eb5  Bb5
...

lyrics may be a bit off
RATE!!!
Добавлено: 17.06.2012
Другие материалы по этой песне:
  • Аккорды и текст

Страница создана 16.05.2012
http://primanota.ru/inxs/to-look-at-you-chords.htm
Привет, Гость.
Предлагаем пройти революционный курс по гитаре.
Подарок от PrimaNota.Ru, забирай!