PrimaNota.ru - самый крупный в мире бесплатный архив песенных текстов, аккордов, табулатур и нот


Inxs - Time - аккорды и текст, таба, видео

Регистрация Запомнить меня
Войти через:  Facebook Google Twitter Vk Yandex Mail.ru

Inxs - Time - аккорды и текст, таба, видео

Печатать
Просмотров: 166
Time
Inxs
		   Time by INXS
Heavy Distortion

Main Riff-played a lot

e---------------------------
b---------------------------
g-2-2-0-2-------------------
d-2-2-0-2-------------------
a---------------------------
e---------------------------


Chorus

A         C
Well It's Only Time

G         D
It's Only Time That Makes You

A         C
Well It's Only Time

G         D
It's Only Time That Breaks You

Chord Formations...You can actually use any forms of them, this just
what I use
A  C  G  D
e-5-8--3---
b-5-8--3--7
g-6-9--4--7
d-7-10-5--7
a-7-10-5--5
e-5-8--3---

Solo (Kirk's Way)

e---------------------------------------------------------------
b-------------------------------------13-12-13-12-13-12---------
g-12-11-12-11-12-11-14-13-14-13-14-13---------------------------
d---------------------------------------------------------------
a---------------------------------------------------------------
e---------------------------------------------------------------

                       (repeat this part until
                        return to main riff)
e-15-15-15-14----12-14-15-15-15-14-14-14
b-------------15------------------------

Solo (My Way)                                              (Repeat this
                                                           part until
                                                            return to
                                                            main riff)

e-3-2-3-2-3-2-5-4-5-4-5-4-8-7-8-7-8-7-15-15-15-14----12-14-15-15-15-14-
b-3-3-3-3-3-3-5-5-5-5-5-5-8-8-8-8-8-8-15-15-15-15-15-12-15-15-15-15-14
g-2-2-2-2-2-2-4-4-4-4-4-4-7-7-7-7-7-7-14-14-14-14-14----14-15-15-15-14     
Добавлено: 13.09.2013
Другие материалы по этой песне:
  • Аккорды и текст

Страница создана 24.02.2012
http://primanota.ru/inxs/time-chords.htm
Привет, Гость.
Предлагаем пройти революционный курс по гитаре.
Подарок от PrimaNota.Ru, забирай!