PrimaNota.ru - самый крупный в мире бесплатный архив песенных текстов, аккордов, табулатур и нот


Inxs - I Send A Message - текст песни, бас-таба, видео

Регистрация Запомнить меня
Войти через:  Facebook Google Twitter Vk Yandex Mail.ru

Inxs - I Send A Message - текст песни, бас-таба, видео

Печатать
Просмотров: 214
I Send a Message – Inxs

Verse
G|------------------------------|
D|--.-.-------------.---3-2-----| x8
A|--3-3-0-1-3-0-1-3-3-0-----3---|
E|------------------------------|

Chorus 
G|--------------------------------|
D|--------------------------------| x2
A|--------------------------------|
E|-5------5—5p3-505---------------|

G|-------------------|
D|-------------------| x1
A|-------------------|
E|-55-35-05----------|

Verse
G|------------------------------|
D|--.-.-------------.---3-2-----| x8
A|--3-3-0-1-3-0-1-3-3-0-----3---|
E|------------------------------|

Chorus (use variations)
G|--------------------------------|
D|--------------------------------| x2
A|--------------------------------|
E|-5------5—5p3-505---------------|

G|-------------------|
D|-------------------| x1
A|-------------------|
E|-55-35-05----------|

Interlude
G|-------------------------|
D|-------------------------| x2
A|------------5-5-0-5-8----|
E|-3-3-0-3-5---------------|

Solo
G|-----------------------|
D|-.-.-------------------| x5
A|-3-3-0-1-3-------------|
E|-----------------------|

Verse
G|------------------------------|
D|--.-.-------------.---3-2-----| x8
A|--3-3-0-1-3-0-1-3-3-0-----3---|
E|------------------------------|

Chorus (use variations)
G|--------------------------------|
D|--------------------------------| x2
A|--------------------------------|
E|-5------5—5p3-505---------------|

G|-------------------|
D|-------------------| x1
A|-------------------|
E|-55-35-05----------|

Interlude
G|-------------------------|
D|-------------------------| x4
A|------------5-5-0-5-8----|
E|-3-3-0-3-5---------------|

Chorus (use variations)
G|--------------------------------|
D|--------------------------------| x2
A|--------------------------------|
E|-5------5—5p3-505---------------|

G|-------------------|
D|-------------------| x1
A|-------------------|
E|-55-35-05----------|

Verse
G|------------------------------|
D|--.-.-------------.---3-2-----| x1
A|--3-3-0-1-3-0-1-3-3-0-----3---|
E|------------------------------|

End
G|-----------------|
D|-.-.-------------|
A|-3-3-0-1-3-------|
E|-----------------|
Добавлено: 24.05.2012
Другие материалы по этой песне:
  • Аккорды и текст

Страница создана 24.05.2012
http://primanota.ru/inxs/i-send-a-message-chords.htm
Привет, Гость.
Предлагаем пройти революционный курс по гитаре.
Подарок от PrimaNota.Ru, забирай!