PrimaNota.ru - самый крупный в мире бесплатный архив песенных текстов, аккордов, табулатур и нот


Inxs - Days of Rust - текст песни, бас-таба, видео

Регистрация Запомнить меня
Войти через:  Facebook Google Twitter Vk Yandex Mail.ru

Inxs - Days of Rust - текст песни, бас-таба, видео

Печатать
Просмотров: 208
Уроки эстрадного вокала в Санкт-Петербурге
Tabbed by: bassm99
E-mail: alanmatthews1966@yahoo.co.uk

Tuning: E, A, D, G

"Days Of Rust" from the album "Full Moon, Dirty Hearts" (1993)
Written by Andrew Farriss/Michael Hutchence

Verse: (Play 8 Times)

G|----------------------------------------------------------------------------|
D|----------------------------------------------------------------------------|
A|--5-5-5-5-5-5-5-5--10-10-10-10-10-10-10-10----------------------------------|
E|----------------------------------------------------------------------------|

Chorus: (Play 4 Times)  

G|----------------------------------------------------------------------------|
D|----------------------------------------------------------------------------|
A|--8---3-3-------------------------------------------------------------------|
E|----------------------------------------------------------------------------|

Repeat Verse: (Play 4 Times)

Repeat Chorus:

Bridge:

G|----------------------------------------------------------------------------|
D|----------------------------------------------------------------------------|
A|--5-5-5-5-5-5-5-5-(x4)--10-10-10-10-10-10-10-10-(x3)--10-10-10-10-10-10-8-7-|
E|----------------------------------------------------------------------------|

G|----------------------------------------------------------------------------|
D|----------------------------------------------------------------------------|
A|--(x1)--5-5-5-5-5-5-5-5-(x4)------------------------------------------------|
E|----------------------------------------------------------------------------|

Verse:

G|----------------------------------------------------------------------------|
D|----------------------------------------------------------------------------|
A|--5-5-5-5-5-5-5-5--3-3-3-3-3-3-1-0-(x4)--5-5-5-5-5-5-5-5--------------------|
E|----------------------------------------------------------------------------|

G|----------------------------------------------------------------10-12-------|
D|----------------------------------------------------------------------------|
A|--10-10-10-10-10-10-10-10-(x3)--5-5-5-5-5-5-5-5--10-10-10-10-10-------(x1)--|
E|----------------------------------------------------------------------------|

Chorus: (Play 4 Times)  

G|----------------------------------------------------------------------------|
D|----------------------------------------------------------------------------|
A|--8---3-3-3-3-3-3-3-3-3-3-3-3-----------------------------------------------|
E|----------------------------------------------------------------------------|

Ending Chorus: (Bass stops at 2:48)

G|----------------------------------------------------------------------------|
D|----------------------------------------------------------------------------|
A|--3-3-3-3-3-3-3-3-(x1)--8--3-3-3-3-3-3-3-3-3-3-3-3-(x3)---------------------|
E|----------------------------------------------------------------------------|

G|----------------------------------------------------------------------------|
D|----------------------------------------------------------------------------|
A|--3-3-3-3-3-3-3-3-(x7)--3---------------------------------------------------|
E|----------------------------------------------------------------------------|

Добавлено: 08.07.2015
Другие материалы по этой песне:
  • Аккорды и текст

Страница создана 28.02.2012
http://primanota.ru/inxs/days-of-rust-chords.htm
Привет, Гость.
Предлагаем пройти революционный курс по гитаре.
Подарок от PrimaNota.Ru, забирай!