PrimaNota.ru - самый крупный в мире бесплатный архив песенных текстов, аккордов, табулатур и нот


Invisible - Alarma Entre Los ángeles - таба, бас-таба, видео

Регистрация Запомнить меня
Войти через:  Facebook Google Twitter Vk Yandex Mail.ru

Invisible - Alarma Entre Los ángeles - таба, бас-таба, видео

Печатать
Просмотров: 119
Alarma entre los Ángeles - Invisible
Guitarra solista. Standard tuning.


[0:00]

e|-17b19--------20----17--------------20r19-19----\0-|
B|--------------------------18----20-----------------|
G|---------------------------------------------------|
D|---------------------------------------------------|
A|---------------------------------------------------|
E|---------------------------------------------------|

[0:18]

|------------------------15-13-12-------12-15-13-------13-12-10-9----7-9p7-----------------------|
|--------12-13----15b17-----------13-15----------13-11---------------------10-9h10p9p7-9----/14\-|
|--------------12--------------------------------------------------------------------------------|
|------------------------------------------------------------------------------------------------|
|-11-11\-----------------------------------------------------------------------------------------|
|------------------------------------------------------------------------------------------------|

|-----------------15-13-12-------12-13-12---------------------------------------------------------------|
|-12-13----15b17-----------13-15----------15-13---------------------------------------------------------|
|-------12--------------------------------------15-14-12------------------------------------9h11p9----9-|
|--------------------------------------------------------15-13-12-------------------9-11h12--------12---|
|-----------------------------------------------------------------15-13-12----11-12---------------------|
|-------------------------------------------------------------------------------------------------------|

|-------------------12-14-15--17b19-17b19~-17-15-14-12----13-12--------------------------|
|----------12-13-15------------------------------------15-------15-13----13-16-15-13-15~-|
|-11-12-14------------------------------------------------------------15-----------------|
|----------------------------------------------------------------------------------------|
|----------------------------------------------------------------------------------------|
|----------------------------------------------------------------------------------------|

|-----14-15----17b19~-19r17-15-14-12-------------------------------------------------------------|
|-(0)-------15-----------------------15-13-12----------------------------------------13-15~---\0-|
|---------------------------------------------14p12-------------------------12-13-15-------------|
|---------------------------------------------------15-14p12-15p14p12-13-15----------------------|
|------------------------------------------------------------------------------------------------|
|------------------------------------------------------------------------------------------------|

[0:54]

|--------------12------------------------------------------------------------------------|
|-15b17-15b17~----15-12-------15-12-----------------------12-------15-12--12-------15-12-|
|-----------------------14-12-------14-12-11----11-----------14-12-----------14-12-------|
|--------------------------------------------14----12-14---------------------------------|
|----------------------------------------------------------------------------------------|
|----------------------------------------------------------------------------------------|

|-14h15--14-12-14~--------------12-14-15/17-15-14-15-17--17b19-17b19~-|
|------------------15-12--12-15---------------------------------------|
|---------------------------------------------------------------------|
|---------------------------------------------------------------------|
|---------------------------------------------------------------------|
|---------------------------------------------------------------------|

|-17-15-14-----------------12----------------------------------------------------------12----------------------|
|----------17-15-13\12--15----15-12-------15-12-------------------------------12-13-15----15-13-12-------15-13-|
|---------------------14------------14-12-------14-12\11----11-------11-12-14----------------------14-12-------|
|--------------------------------------------------------14----12-14-------------------------------------------|
|--------------------------------------------------------------------------------------------------------------|
|--------------------------------------------------------------------------------------------------------------|

|-------------------------14-14--12-12---------------------15-|
|-12h13p12-----12-13-12----------------15-12-12---12-13-15----|
|----------14-------------------------------------------------|
|-------------------------------------------------------------|
|-------------------------------------------------------------|
|-------------------------------------------------------------|

|-15--14-12-------------------------------15-13-11-10-10-|
|-----------15~-12-----------12-13~--/18\-16-15-13-11-12-|
|------------------14-12--14-----------------------------|
|--------------------------------------------------------|
|--------------------------------------------------------|
|--------------------------------------------------------|

[1:37]

|--------------------------------------------------12-15-12--14--12--15-12-14-|
|--------------12-13-12h13p12----------------12-15----------------------------|
|-14b16-14b16~----------------14-12h14p12-14----------------------------------|
|-----------------------------------------------------------------------------|
|-----------------------------------------------------------------------------|
|-----------------------------------------------------------------------------|

|-12-15-12-14-12-15-12-14-12-15-12-14--12h14----12-14-12h14p12----17b19--15-17-17b19~-17b19--17-15-14-|
|--------------------------------------------15-------------------------------------------------------|
|-----------------------------------------------------------------------------------------------------|
|-----------------------------------------------------------------------------------------------------|
|-----------------------------------------------------------------------------------------------------|
|-----------------------------------------------------------------------------------------------------|

|-12-10-------------12---------------------------------------------------------12------------------12------|
|-------10/12----15----15-12-------15-12-------------------------------12-13-15--15-13-12-----15-13--15-13-|
|-------------14-------------14-12-------14-12\11----11--------11-12-14------------------14-12-------------|
|-------------------------------------------------14----12-14----------------------------------------------|
|----------------------------------------------------------------------------------------------------------|
|----------------------------------------------------------------------------------------------------------|

|---------------------------------------------------------------------------|
|-12h13p12----------15~-13-12h13p12----------12-13-12--12----------12-13-12-|
|-----------14--12------------------14-12-14--------------14-12-14----------|
|---------------------------------------------------------------------------|
|---------------------------------------------------------------------------|
|---------------------------------------------------------------------------|

|-14h15~-14h15~-14-12---------------------------15-13-11-10-10-|
|---------------------15~-12-----------12-13~---16-15-13-11-12-|
|----------------------------14-12--14-------------------------|
|--------------------------------------------------------------|
|--------------------------------------------------------------|
|--------------------------------------------------------------|

[2:20]

|-----------------15-13-12-------12-15-13-------13-12-10-9----7-9p7---------------|
|-12-13----15b17-----------13-15----------13-11---------------------10-9h10p9p7-9-|
|-------12------------------------------------------------------------------------|
|---------------------------------------------------------------------------------|
|---------------------------------------------------------------------------------|
|---------------------------------------------------------------------------------|

|-----------------15-13-12-------12-13-12--------------------------------------------------------------|
|-12-13----15b17-----------13-15----------15-13--------------------------------------------------------|
|-------12--------------------------------------15-14-12-----------------------------------9h11p9----9-|
|--------------------------------------------------------15-13-12---------------------9h11--------12---|
|-----------------------------------------------------------------15-13-12----9h11h12------------------|
|------------------------------------------------------------------------------------------------------|

|-------------------12-14-15--17b19r17-17b19~-17-15-14-12----13-12--------------------------|
|----------12-13-15---------------------------------------15-------15-13----13-16-15-13-15~-|
|-11-12-14---------------------------------------------------------------15-----------------|
|-------------------------------------------------------------------------------------------|
|-------------------------------------------------------------------------------------------|
|-------------------------------------------------------------------------------------------|

|-12h14p12-------14-14~-14-15----17b19~-17-15-14-12-----------------------------------------------------------|
|----------15/17--------------15--------------------15-13-12-------------------------------------------13-15~-|
|------------------------------------------------------------14-12----------------------------12-13-15--------|
|------------------------------------------------------------------15p14-15p14p12-14p12-13-15-----------------|
|-------------------------------------------------------------------------------------------------------------|
|-------------------------------------------------------------------------------------------------------------|

[2:56]

|-12h14-14p12--------------------15b17-15-14-14p12h14-12-------------------------|
|-------------15h17p15-----------------------------------15h17p15----------------|
|----------------------16p14-16-----------------------------------16h18p16p14-16-|
|--------------------------------------------------------------------------------|
|--------------------------------------------------------------------------------|
|--------------------------------------------------------------------------------|

|-17b19--17-15-17b19--17b19--17-15-17b19--17b19r17b19-17b19~-|
|------------------------------------------------------------|
|------------------------------------------------------------|
|------------------------------------------------------------|
|------------------------------------------------------------|
|------------------------------------------------------------|

|-17-15-14-------------------12----------------------12----------------------------------------|
|----------17-15-13\12----15----15-13p12-------15-13----15-13p12-------------------------------|
|----------------------14----------------14-12-------------------14-12\11h12p11----11----------|
|-------------------------------------------------------------------------------14----14-12-14-|
|----------------------------------------------------------------------------------------------|
|----------------------------------------------------------------------------------------------|

|-----------------------------------------------------------------12-------------14b15-|
|-12----------12-----------------------------------------12-13-15----15-13----12-------|
|----11-12-11----11-12-11--12p11----11----------11-12-14-------------------14----------|
|--------------------------------14----14-12-14----------------------------------------|
|--------------------------------------------------------------------------------------|
|--------------------------------------------------------------------------------------|

|-14-12-14~-14b15-14b15-14b15~-15r14-12-14-15b17--17r15~-|
|--------------------------------------------------------|
|--------------------------------------------------------|
|--------------------------------------------------------|
|--------------------------------------------------------|
|--------------------------------------------------------|

[3:16]

|-14-12----12-------------------------------------------------------------------12-------------|
|-------15----15-12-------15-12----------------------------------------12-13-15----15-13-12-12-|
|-------------------14-12-------14-12\11h12p11----11----------11-12-14-------------------------|
|----------------------------------------------14----14-12-14----------------------------------|
|----------------------------------------------------------------------------------------------|
|----------------------------------------------------------------------------------------------|

|-----------------12------------------12------------------------------------------------------------12-14-15-|
|---------12-13-15--15-13-12--12-13-15--15-13-12-----15-13-12-------------------------------12-13-15---------|
|-11-12-14------------------14------------------14-12--------14-11h12----11---------11-12-14-----------------|
|---------------------------------------------------------------------14----14-12-14-------------------------|
|------------------------------------------------------------------------------------------------------------|
|------------------------------------------------------------------------------------------------------------|

|-14-12-14--15-14-12-15/17-15----15-17b19--17-15-17b19~-19b20--19-17--19b20-19-17-19b20-19-17-19b20~-19-17-19-|
|-----------------------------17------------------------------------------------------------------------------|
|-------------------------------------------------------------------------------------------------------------|
|-------------------------------------------------------------------------------------------------------------|
|-------------------------------------------------------------------------------------------------------------|
|-------------------------------------------------------------------------------------------------------------|

|-17-15-14-------------------12----------------------------------------------|
|----------17-15-13\12----15----15-12-------15-12----------------------------|
|----------------------14-------------14-12-------14-11h12p11----11----------|
|-------------------------------------------------------------14----14-12-14-|
|----------------------------------------------------------------------------|
|----------------------------------------------------------------------------|

|--------------------------------------------------------------15-14-12h14p12----12--------12----------|
|----------12h13p12----12h13p12----12--15p12----12h15p12----12----------------15-----15b17----12----12-|
|-11-12-14----------14----------14-----------14----------14--------------------------------------14----|
|------------------------------------------------------------------------------------------------------|
|------------------------------------------------------------------------------------------------------|
|------------------------------------------------------------------------------------------------------|

[3:40]

|-15-14-12---------------------------------------------------------------------------------|
|----------15-12----------15-13-12---------------------------------------------------------|
|----------------14-13-12----------14-12----------14-13-12---------------------------------|
|----------------------------------------14-13-12----------14-12-----14-13-12--------------|
|----------------------------------------------------------------14-----------14-12--------|
|-----------------------------------------------------------------------------------15--12-|

|-------------------------------14-17-15-14-12----12--14r12-10-12b14~-12b14-12-10-12b14-12-10-12b14-12~-|
|----------------------------15----------------15-------------------------------------------------------|
|-------------------14----16----------------------------------------------------------------------------|
|----------12-14/16----17-------------------------------------------------------------------------------|
|----12-14----------------------------------------------------------------------------------------------|
|-15----------------------------------------------------------------------------------------------------|

|-10------------------------------------------------------8-7h8p7----7-10b12-10-8-7----7---|
|----12p10-------------------7-8-7h8p7----7-10b12--10b12----------10----------------10---8-|
|----------12-11-9----9--7h9-----------9---------------------------------------------------|
|------------------12----------------------------------------------------------------------|
|------------------------------------------------------------------------------------------|
|------------------------------------------------------------------------------------------|

|--------------------10-8-7----7--------------------------7------------|
|-7h8p7---10-----7-8--------10---8-10-7--8-7h8p7---7-8h10---10-8p7---7-|
|-------9----7-9---------------------------------9-----------------9---|
|----------------------------------------------------------------------|
|----------------------------------------------------------------------|
|----------------------------------------------------------------------|

[4:07]

|------7-----------------7---------------7-----------------7-----------------7----|
|-8h10---10-8p7---7h8h10---10-8p7-7h8h10---10-8p7---7h8h10---10-8p7---7h8h10---10-|
|---------------9---------------------------------9-----------------9-------------|
|---------------------------------------------------------------------------------|
|---------------------------------------------------------------------------------|
|---------------------------------------------------------------------------------|

|-8-7----10-7-8----7------------------------------------------------------------------|
|-----10--------10---10-8-10-8p7---7--------------------------------------------------|
|--------------------------------9---9-7-------------7-------------7------------------|
|----------------------------------------10-9-7-9-10---10-9-7-9-10---10-9-7----7------|
|---------------------------------------------------------------------------10---10-9-|
|-------------------------------------------------------------------------------------|

|---------------------------------7----8-7----10-7----7-10/12--10-----------------------|
|----------------------7---7h8h10---10-----10------10--------------12/13--12--13/15--13-|
|------------------7h9---9--------------------------------------------------------------|
|-----------7-9-10----------------------------------------------------------------------|
|----7-9-10-----------------------------------------------------------------------------|
|-10------------------------------------------------------------------------------------|

|-12----14-12-15-14-15/17-15-14----14-15-17b19-17-15-14-----14h15p14----14--14h15p14----14-|
|----15-------------------------17----------------------17-----------17--------------17----|
|------------------------------------------------------------------------------------------|
|------------------------------------------------------------------------------------------|
|------------------------------------------------------------------------------------------|
|------------------------------------------------------------------------------------------|

|-14-15-14----------14-15-14----14-17-15p14----14-15-14----------14-15-14----14-17-15p14----14h15p14----14-|
|----------17-15-17----------17-------------17----------17-15-17----------17-------------17----------17----|
|----------------------------------------------------------------------------------------------------------|
|----------------------------------------------------------------------------------------------------------|
|----------------------------------------------------------------------------------------------------------|
|----------------------------------------------------------------------------------------------------------|

|-17b19-17b19-17b19~-17b19--17-15-17b19r17b19--17-15-14-12----12-------|
|----------------------------------------------------------15----15b17-|
|----------------------------------------------------------------------|
|----------------------------------------------------------------------|
|----------------------------------------------------------------------|
|----------------------------------------------------------------------|

[4:31]

|-12---------------------------------------------------------------------------------|
|----15-12-------15-12--------------------------------------12-13-12h13p12-----------|
|----------14-12-------14-12\11----11-------11-12-11--12-14-----------------11b12r11-|
|-------------------------------14----12-14------------------------------------------|
|------------------------------------------------------------------------------------|
|------------------------------------------------------------------------------------|

|----------------------------------------------------------------------------------------12-|
|----------------------------------------------------------------------12----13-12-15-13----|
|-11b12r11-11b12~-11b12r11-----11-------11-----------11----12-11-14-12----14----------------|
|---------------------------14----12-14----14--14-12----14----------------------------------|
|-------------------------------------------------------------------------------------------|
|-------------------------------------------------------------------------------------------|

|------------12----------12----------12----------14b15~-14b15r14--15b17r15-|
|-15-13--12-----15-13-12----15-13-12----15-13-12---------------------------|
|--------------------------------------------------------------------------|
|--------------------------------------------------------------------------|
|--------------------------------------------------------------------------|
|--------------------------------------------------------------------------|

|-15--14--12----------------------------------------------------------------|
|------------15-12-------15p13p12----------------------------------------12-|
|------------------14-12----------14-12\11----11-------11-12-11----11-14----|
|------------------------------------------14----12-14----------------------|
|---------------------------------------------------------------------------|
|---------------------------------------------------------------------------|

[4:59]

|--------------------------------------------------------------------------------------------------(0)-|
|-15--12-----15--12-----15--12-----15--12-----15--12-----15--12-----15--12-----15--12-----15-15b17-----|
|---------14---------14---------14---------14---------14---------14---------14---------14--------------|
|------------------------------------------------------------------------------------------------------|
|------------------------------------------------------------------------------------------------------|
|------------------------------------------------------------------------------------------------------|

|--------------14b15-14--12-15b17-15--14-12-14--12----------------|
|-15b17-15--12--------------------------------------15-12---------|
|----------------------------------------------------------14--12-|
|-----------------------------------------------------------------|
|-----------------------------------------------------------------|
|-----------------------------------------------------------------|

|-----------------------------------------------------------------|
|-15-12-----------------------------------12-------15-12-------15-|
|-------14-12-11----11-------11-12-11--------14-12-------14-12----|
|----------------14----12-14----------14--------------------------|
|-----------------------------------------------------------------|
|-----------------------------------------------------------------|

|----------------------------------------------------------------12-14-15p14p12-------14-17----14-17b19-|
|-12-------15-12----------------------------------------12-13-15----------------15-17-------17----------|
|----14-12-------14-12\11h12p11----11----------11-12-14-------------------------------------------------|
|-------------------------------14----14-12-14----------------------------------------------------------|
|-------------------------------------------------------------------------------------------------------|
|-------------------------------------------------------------------------------------------------------|

|-17b19-17b19-17b19--17-15-14----14-----------------------15b17--15-12-15b17--15-|
|-----------------------------17----17-15-14----14-17b19~------------------------|
|--------------------------------------------16----------------------------------|
|--------------------------------------------------------------------------------|
|--------------------------------------------------------------------------------|
|--------------------------------------------------------------------------------|

[5:29]

|-12----12--------12--------------------------------------------------------12-------------|
|----15----15b17-----15p12-------15p12-----------------------------------------15-12----12-|
|--------------------------14p12-------14-11h12p11----11----------11-12h14-----------14----|
|--------------------------------------------------14----14-12-14--------------------------|
|------------------------------------------------------------------------------------------|
|------------------------------------------------------------------------------------------|

|--------------------------------------------------------------------------------------|
|-12--12--12--12--12--12--12--12--12--12-------12--------12-12-------------------------|
|----------------------------------------14b16----14b16--------14b16-14b16-14b16-14b16-|
|--------------------------------------------------------------------------------------|
|--------------------------------------------------------------------------------------|
|--------------------------------------------------------------------------------------|

[5:44]

|--------------------------13-------------------12--------------|
|-12----12-15--12-15b17~-----------15--15b17~------15-12-15b17~-|
|----14------------------------15-------------------------------|
|---------------------------------------------------------------|
|---------------------------------------------------------------|
|---------------------------------------------------------------|

|----------------------13-------------------14--14b16~-|
|-15b17-15b17-15b17~-----------15--15b17~--------------|
|--------------------------15--------------------------|
|------------------------------------------------------|
|------------------------------------------------------|
|------------------------------------------------------|

|-17--17b19-17b19-17b19~---20--17----------20r19--19----17/15-17-14-|
|----------------------------------18--20---------------------------|
|-------------------------------------------------------------------|
|-------------------------------------------------------------------|
|-------------------------------------------------------------------|
|-------------------------------------------------------------------|

|-14-15-17-17b19--17b19--17b19--17b19~---20--17----------20r19--19-|
|------------------------------------------------18--20------------|
|------------------------------------------------------------------|
|------------------------------------------------------------------|
|------------------------------------------------------------------|
|------------------------------------------------------------------|

|-17\15-15\14h15p14----14-------14----------------14----------------14----------------12-------------|
|-------------------17----17p15----17-15-14-15-17----17-15-14-15-17----17-15-14-15-17----15-12h14p12-|
|----------------------------------------------------------------------------------------------------|
|----------------------------------------------------------------------------------------------------|
|----------------------------------------------------------------------------------------------------|
|----------------------------------------------------------------------------------------------------|

|---------------------------------------------------------------------------------------------------|
|------------------------------------------------------------------------------------------12-14-15-|
|-14-12\11----11-14-12p11----11-14-12-11------------------------------------------11-12-14----------|
|----------14-------------14-------------12-11-12-11-14-12-11-----------11-12--14-------------------|
|-------------------------------------------------------------14-12-14------------------------------|
|---------------------------------------------------------------------------------------------------|


************************************

| /   slide up
| \   slide down
| h   hammer-on
| p   pull-off
| ~   vibrato
| b   bend
| r   release
| ()  optional

************************************

superclustertab@gmail.com

************************************
Добавлено: 23.07.2015
Другие материалы по этой песне:
  • Аккорды и текст

Страница создана 29.09.2014
http://primanota.ru/invisible/alarma-entre-los-angeles-chords.htm
Привет, Гость.
Предлагаем пройти революционный курс по гитаре.
Подарок от PrimaNota.Ru, забирай!