PrimaNota.ru - самый крупный в мире бесплатный архив песенных текстов, аккордов, табулатур и нот


Invisible Monsters - Knives Deliverance - таба, видео

Регистрация Запомнить меня
Войти через:  Facebook Google Twitter Vk Yandex Mail.ru

Invisible Monsters - Knives Deliverance - таба, видео

Печатать
Просмотров: 68
Gtr I (Eb Ab Db Gb Bb Eb) - Acoustic
Gtr II (Eb Ab Db Gb Bb Eb) - Acoustic (Could be electric... but not as good)

'Knive's Deliverance' - from "Social Parasites" 
By Scott Berbick of the Invisible Monsters
Tablature by Scott Berbick

Hey guys, this is Scott from the Invisible Monsters. The timing on the
lead for this song is very strange - you'll HAVE to hear it before
you try to play it. Download Knive's Deliverance at
http://invisiblemonsters.iuma.com
You'll love it. And, I equipped you with the entire Tab! Enjoy!

 4/4
  Guitar I - Acoustic 
 
Riff 1
|-------------------------------------------------------------------|
|-------------------------------------------------------------------|
|-------------------------------------------------------------------|
|-----2-----2-----2-----2-----2-------2-----2-----2-----2-----2-----|
|---3-----3-----3-----3-----3---3---3-----3-----3-----3-----3---3---|
|-5-----5-----5-----5-----5-------4-----4-----4-----4-----4---------|



|---------------------------------------------------------------|
|---------------------------------------------------------------|
|---------------------------------------------------------------|
|-----2-----2-----2-----2-----2-------0-----0--------5-----5----|
|---0-----0-----0-----0-----0---0---0-----0--------6-----6------|
|-3-----3-----3-----3-----3-------2-----2-----2-/5-----5--------|


Fill 1
|---------------------------|
|---------------------------|
|---------------------------|
|-4-------------------------|
|---5-/7--------------------|
|--------7-5-3-2-3h5-3-2----|


Guitar 2 - Lead - (Dropped 1/2 Step Tuning - Listen to song for 
timing on these leads) 

Lead 1
|----------------------------------|
|---------4-7-5-4p0----------------|
|-4-7-5-4-----------4-3-2-1--------|
|---------------------------5-7----|
|----------------------------------|
|----------------------------------|

Lead 2
|-12-12-/15-12-10h12p10------------------------------------------|
|-----------------------12-13-12-10h12p10---------9-10-10-/12----|
|-----------------------------------------12-10-9----------------|
|----------------------------------------------------------------|
|----------------------------------------------------------------|
|----------------------------------------------------------------|


Lead 3
|---------------7-8-7----------------------|
|-----------7-9-------9-8-7----------------|
|-------7-9-----------------9-8------------|
|---7-9-------------------------9-9-/12----|
|-7----------------------------------------|
|------------------------------------------|


Rhythm Chorus
|----------------------------------------------------|
|----------------------------------------------------|
|----------------------------------------------------|
|-2-2-2-2-2--7-7-7-7-7--0-0-0-0-0--12-12-12-12-12----|
|-2-2-2-2-2--7-7-7-7-7--7-7-7-7-7--12-12-12-12-12----|
|-0-0-0-0-0--5-5-5-5-5--8-8-8-8-8--10-10-10-10-10----|


 
|-----------------------------------------------|
|-----------------------------------------------|
|-----------------------------------------------|
|-2-2-2-2-2--7-7-7-7-7--0-0-0-0-0--5-5-5-5-5----|
|-2-2-2-2-2--7-7-7-7-7--7-7-7-7-7--5-5-5-5-5----|
|-0-0-0-0-0--5-5-5-5-5--8-8-8-8-8--3-3-3-3-3----|

Lead Chorus
|---0---0---0---0h2---2---2---2-/3---3---3---3-/5---5---5---5----|
|-0---0---0---0-----0---0---0------0---0---0------0---0---0------|
|----------------------------------------------------------------|
|----------------------------------------------------------------|
|----------------------------------------------------------------|
|----------------------------------------------------------------|

Lead Chorus 2
|-0------------------------0--------------------------|
|-0-3-0--------------------0-3-0----------------------|
|-------2-4-0--------------------2-4-0----------------|
|-------------2-2-2-2-2-2--------------4-4-4-4-4-4----|
|-----------------------------------------------------|
|-----------------------------------------------------|

Lead Chorus 3
|-0-0------------------------0-0------------------------------|
|-0-0-3-0--------------------0-0-3-0--------------------------|
|---------2-4-0----------------------2-4-0-2-2-2-2-2-2p0------|
|---------------2-2-2-2-2-2------------------------------2----|
|-------------------------------------------------------------|
|-------------------------------------------------------------|

Solo
|-0-0-0-0-0-0-2-2-2-2-2-2-3-3-3-3-3-3-3-/5-3-7-5-3-0----|
|-------------------------------------------------------|
|-------------------------------------------------------|
|-------------------------------------------------------|
|-------------------------------------------------------|
|-------------------------------------------------------|


|-0-0-0-0-0-0h2-2-3-2-3-2-2-/5-3-5-3-5-5-/7-8-7-5-7-5-3-3-0----|
|--------------------------------------------------------------|
|--------------------------------------------------------------|
|--------------------------------------------------------------|
|--------------------------------------------------------------|
|--------------------------------------------------------------|


  
|-12-12-12-12-12-12-/14-14-14-14-14-14-15-15-15-15-15-15|
|-------------------------------------------------------|
|-------------------------------------------------------|
|-------------------------------------------------------|
|-------------------------------------------------------|
|-------------------------------------------------------|

|15-/17-17-17-17-17-17-19-19-19-19-19---|
|---------------------------------------|
|---------------------------------------|
|---------------------------------------|
|---------------------------------------|
|---------------------------------------|

|-12-10-12-10-12-10-14-12-10-12-10----0-2-3-0-2-3-2-/5-3-2-2h3p2-2p0-0----|
|----------------------------------12-------------------------------------|
|-------------------------------------------------------------------------|
|-------------------------------------------------------------------------|
|-------------------------------------------------------------------------|
|-------------------------------------------------------------------------|


End Riff
|-------------0----|
|-------------0----|
|-----------0-0----|
|---------2---2----|
|-------2-----2----|
|-3p0-0-------0----|

Song set up:

Riff 1 + Lead 1 (Listen for timing on these leads.)
Riff 1 + Lead 2 
Riff 1 + Lead 3
Fill 1
Rhythm Chorus + Lead Chorus (2x)
Rhythm Chorus + Lead Chorus 2 and Lead Chorus 3

Riff 1 + Lead 1 
Riff 1 + Lead 2 
Riff 1 + Lead 3
Fill 1
Rhythm Chorus + Lead Chorus (2x)
Rhythm Chorus + Lead Chorus 2 and Lead Chorus 3

Rhythm Chorus (Repeat as necessary)+ Solo

Riff 1 + Lead 1 
Riff 1 + Lead 2 
Riff 1 + Lead 3
Fill 1
Rhythm Chorus + Lead Chorus (2x)
Rhythm Chorus + Lead Chorus 2 and Lead Chorus 3

End Riff


Tablature Legend
----------------
 h   - hammer-on
 p   - pull-off
 /\  - slide into or out of (from/to "nowhere")
     
Добавлено: 17.11.2013
Вам также может быть интересно:
Другие материалы по этой песне:
  • Аккорды и текст

Страница создана 17.11.2013
http://primanota.ru/invisible-monsters/knives-deliverance-chords.htm
Привет, Гость.
Предлагаем пройти революционный курс по гитаре.
Подарок от PrimaNota.Ru, забирай!