PrimaNota.ru - самый крупный в мире бесплатный архив песенных текстов, аккордов, табулатур и нот


Inveracity - Extermination Of Millions - таба, видео

Регистрация Запомнить меня
Войти через:  Facebook Google Twitter Vk Yandex Mail.ru

Inveracity - Extermination Of Millions - таба, видео

Печатать
Просмотров: 82
Уроки эстрадного вокала в Санкт-Петербурге
#----------------------------------PLEASE
NOTE---------------------------------#
#This file is the author's own work and represents their interpretation of the
#
#song. You may only use this file for private study, scholarship, or research.
#
#-----------------------------------------------------------------------------
-#

Band: (INVERACITY)
Album: (EXTERMINATION OF MILLIONS)
Song: (EXTERMINATION OF MILLIONS)



.    -   palm mute          / - slide up to
\    -   slide down to      ~ - vibrato
h    -   hammer on          b - Bend
p    -   pull off           Suffixes for bend
t    -   tap                f - full bend     h - half bend
ph   -   pinched harmonic   q - quarter bend t - tap bend
*    -   see comment        ^ - Hold bend     r release bend
x    -   Stuccatto          ~ - vibrato bend
,    -   slight palm mute   () - ghost note, sustained note
"    -   tremolo note       <> - Trill


Tuning D G C F

 Riff 1 x2
|-------------------------------------------------------|
|-------------------------------------------------------|
|-------------------------------------------------------|
|--------3"-2"-------------------6"-5"---------3"-2"----|
|--------------4"---------0-1-4----------------------4"-|
|-0-2-5------------0-2-5----------------0-2-5-----------|
  . . . . . .      . . . . . . . .      . . . . . .
|--------------------------|
|--------------------------|
|--------------------------|
|---------------7\6/9/10---|
|--------0-1-4-------------|
|-0-2-5---------5\4/7/8----|
  . . . . . .

 Riff 2 x2
|---------------------------------------|
|---------------------------------------|
|---------------------------------------|
|----------3"-2"--------------3"-2"-5"--|
|----3"-4"-------4"-----3"-4"-----------|
|-1"-----------------1"-----------------|
  . . . . . .        . . . . . .
|----------------------------------------|
|----------------------------------------|
|----------------------------------------|
|----------3"-2"-------------------------|
|----3"-4"-------4"------3"-4"--6-5-88-9-|
|-1"------------------1"--------4-3-66-7-|
  . . . . . .         . . .     . . .. .

 Riff 3 x2
|---------------------------------|
|---------------------------------|
|---------------------------------|
|---------------------------------|
|-4"-3"-----4"-3"-----------------|
|-------1"--------1"--0"-1"-3"-4"-|
  . . .     . . .     . . . .
                                 On last time
|---------------------------------|-------|
|---------------------------------|-------|
|---------------------------------|-------|
|---------------------------------|-------|
|-4"-3"-----4"-3"-----6"-7"-6"-5"-|-3-5-3-|
|-------1"--------1"--------------|-1-3-1-|
  . . .     . . .     . . . .       . . .

 Riff 4 x2
|-----------------------------------------------|
|-----------------------------------------------|
|-----------------------------------------------|
|-----------------------------------------5/6---|
|-3-5-3--4"--3-5-3------3-5-3--4"--3-5-3--------|
|-1-3-1------1-3-1--3"--1-3-1------1-3-1--3/4---|
  . . . .    . . . .    . . . .    . . .


|----------------------|-------------------|
|----------------------|-------------------|
|----------------------|-------------------|
|----------------------|----------3"-2"----|
|-3-5-3--4"--3-5-3-----|----3"-4"-------4"-|
|-1-3-1------1-3-1--3"-|-1"----------------|
  . . . .    . . . .     . . . . . .

 Riff 5
|---------------------------------------|
|---------------------------------------|
|---------------------------------------|
|----------3"-2"-5"-----------3"-2"-----|
|----3"-4"--------------3"-4"-------4"--|
|-1"-----------------1"-----------------|
  . . . . . .        . . . . . .


|---------------------|
|---------------------|
|---------------------|
|---------------------|
|----3"-4"---6-5-88-9-|
|-1"---------4-3-66-7-|
  . . .      . . .. .


 Riff 6 x6
|--------------------------------|
|--------------------------------|
|--------------------------------|
|---------/10--6-------5/6\5--3--|
|-2~-2-2----------2-2------------|
|-0~-0-0--/8---4--0-0--3/4\3--1--|
     . .          . .


 Riff 7a
|----------------------------------------|---------------------------------------|
|----------------------------------------|---------------------------------------|
|----------------------------------------|---------------------------------------|
|----------------------------------------|---------------------------------------|
|-0-1-4--0-5-8--333---------333----------|-0-1-4--0-5-8--333---------333---------|
|---------------111-000-000-111-000-000--|---------------111-000-000-111-000-000-|
  . . . . . . ... ... ... ... ... ...      . . . . . . ... ... ... ... ... ...

|-------------------------------------|---------------------------------------|
|-------------------------------------|---------------------------------------|
|-------------------------------------|---------------------------------------|
|---------------6-5------------3~--6--|---------------------------------------|
|-0-1-4--0-5-8------3-6---------------|-333---------333----------0-1-4--0-5-8-|
|-----------------------2-5----1~--4--|-111-000-000-111-000-000---------------|
   . . . . . . . . . . . .              ... ... ... ... ... ... . . . . . .


 Riff 7b
|-------------------------|--------------------------------------|
|-------------------------|--------------------------------------|
|-------------------------|--------------------------------------|
|-------------------------|----------------6-5------------3~--6--|
|-333---------333---------|--0-1-4--0-5-8------3-6---------------|
|-111-000-000-111-000-000-|------------------------2-5----1~--4--
  ... ... ... ... ... ...    . . . . . . . . . . . .

|---------------------------------------|-------------------------|
|---------------------------------------|-------------------------|
|---------------------------------------|-------------------------|
|---------------------------------------|-------------------------|
|-333---------333----------0-1-4--0-5-8-|-333---------333---------|
|-111-000-000-111-000-000---------------|-111-000-000-111-000-000-|
  ... ... ... ... ... ... . . . . . .     ... ... ... ... ... ...

|----------------------------|
|----------------------------|
|----------------------------|
|----------------6-5---------|
|--0-1-4--0-5-8------3-6-----|
|------------------------2-5-|
   . . . . . . . . . . . .

 Riff 8
|--------------------------------------------------|
|--------------------------------------------------|
|--------------------------------------------------|
|--3"-2"--------------------6"-5"---------3"-2"----|
|--------4"-------------------------------------4"-|
|------------2-4-5--6-8-9----------2-4-5-----------|
   . .       . . . . . .    . .    . . . . . .
|--------------------------|
|--------------------------|
|--------------------------|
|---------------7\6/9/10---|
|--------0-1-4-------------|
|-0-2-5---------5\4/7/8----|
  . . . . . .

 Riff   1   x1
 Riff   4   x2
 Riff   5   x1
 Riff   6   x2

 END
Добавлено: 28.06.2013
Другие материалы по этой песне:
  • Аккорды и текст

Страница создана 28.06.2013
http://primanota.ru/inveracity/extermination-of-millions-chords.htm
Привет, Гость.
Предлагаем пройти революционный курс по гитаре.
Подарок от PrimaNota.Ru, забирай!