PrimaNota.ru - самый крупный в мире бесплатный архив песенных текстов, аккордов, табулатур и нот


Invasionen - Arvegods - таба, видео

Регистрация Запомнить меня
Войти через:  Facebook Google Twitter Vk Yandex Mail.ru

Invasionen - Arvegods - таба, видео

Печатать
Просмотров: 79
standard tuning

this song is very similar to Disorder by Joy Division

intro (this goes on through the whole song)


e-------------------------|
B-------------------------|
G---10---10--10--10-------|
D-8----8----8--8----------|
A-------------------------|
E-------------------------|

0:25
e------------------------------------------|
B------------------------------------------|
G---33--555--33--777---3333-333--220-------|
D------------------------------------------|
A------------------------------------------|
E------------------------------------------|


1:00

e-------------------------------------------|
B-------------------------------------------|
G-------------------------------------------|
D-------------------------------------------|
A-------------------6-----------------------|
E---3------5--8--5--------------------------|



2:00

e------------------------------------------|
B------------------------------------------|
G--7777777--88888--1010--------------------|
D------------------------------------------|
A------------------------------------------|
E------------------------------------------|

3:25

e---------------------|
B---------------------|
G---------------------|
D---------------------|
A--5-65-6-8-----------|
E---------------------|

OUTRO

e-----------------|
B-----------------|
G--7-87-8-10------|
D-----------------|
A-----------------|
E-----------------|


BANDPAGE:http://www.facebook.com/Invasionen
Добавлено: 27.09.2013
Другие материалы по этой песне:
  • Аккорды и текст

Страница создана 27.09.2013
http://primanota.ru/invasionen/arvegods-chords.htm
Привет, Гость.
Предлагаем пройти революционный курс по гитаре.
Подарок от PrimaNota.Ru, забирай!