PrimaNota.ru - самый крупный в мире бесплатный архив песенных текстов, аккордов, табулатур и нот


Intoxicados - Quieren Rock - таба, видео

Регистрация Запомнить меня
Войти через:  Facebook Google Twitter Vk Yandex Mail.ru

Intoxicados - Quieren Rock - таба, видео

Печатать
Просмотров: 94
1/------------------------------------|
2/------------------------------------|
3/------------------------------------|
4/--2-2-2-4-2-2-2-4-2-2--2------------|
5/--0-3-0-0-0-3-0-0-0-3--0------------|
6/---------------------3--------------|


RIFF 2:

1/------------------------------------|
2/------------------------------------|
3/------------------------------------|
4/--2-2-2-4-2-2-2---2---2-------------|
5/--0-3-0-0-0-3-0---0---0-------------|
6/----------------3---3---------------|


Los chicos saben donde esta la accion
 RIFF 1
se estan preparando mientras baja el sol
 RIFF 1
la banda que les gusta se presenta hooooy
 RIFF 1
chicos y chicas quieren rock,quieren rock
quieren rock quieren rock
RIFF 1 Y 2

RIFF 1
Subo al escenario y veo de repente
 RIFF 1
Chicos intoxicados por el rock and roll
 RIFF 1
ya colgaron sus banderas y cantan como siempre
 RIFF 1
que salga la banda que queremos rock,
queremos rock....rock...rock....rock,rock,rock

Solo:

1/-------------------------------------------------------------------|
2/-------------------------------------------------------------------|
3/---7--------7--------7--------7------------------------------------|
4/-----9--7-9---9--7-9---9--7-9---9--7-9---7-7-7-7-------------------|(el7 varias veces)
5/-------------------------------------------------------------------|
6/-------------------------------------------------------------------|


-------------------------------------------------------------------|
-------------------------------------------------------------------|
---7--------7--------7---------7-----7-----7-----10-----------10---|
-----9--7-9---9--7-9---9--7-9----7-9---7-9---7-9----12--10-12---12-|
-------------------------------------------------------------------|
-------------------------------------------------------------------|


--------------------------------------------------------------------|
--------------------------------------------------------------------|
----------12------------12------------14/16-16-16(16----------------| varias veces)
---10-12-----14--12-14-----14--12-14--------------------------------|
--------------------------------------------------------------------|
--------------------------------------------------------------------|


RIFF 3:

1/---------------------------------|
2/---------------------------------|
3/---------------------------------|
4/--4-4-4-6-4-4-4-6-4-4---4--------|
5/--2-5-2-2-2-5-2-2-2-5---2--------|
6/----------------------5----------|


RIFF 4:

1/---------------------------------|
2/---------------------------------|
3/---------------------------------|
4/--4-4-4-6-4-4-4---4---4----------|
5/--2-5-2-2-2-5-2---2---2----------|
6/----------------5---5------------|


RIFF 3
Los chicos saben donde esta la accion
se estan preparando mientras baja el sol
la banda que les gusta se presenta hoy
chicos y chicas quieren rock
quieren rock quieren rock
RIFF 3 Y 4


RIFF 3
Subo al ecenario pero de repente
chicos intoxicados x el rkn roll
ya colgaron sus banderas y cantan como siempre
que salga la banda que queremos rock
rock rock
RIFF 3 Y 4
Добавлено: 08.11.2013
Другие материалы по этой песне:
  • Аккорды и текст

Страница создана 08.11.2013
http://primanota.ru/intoxicados/quieren-rock-chords.htm
Привет, Гость.
Предлагаем пройти революционный курс по гитаре.
Подарок от PrimaNota.Ru, забирай!