PrimaNota.ru - самый крупный в мире бесплатный архив песенных текстов, аккордов, табулатур и нот


Intohimo - I Am Doubt Defined - таба, видео

Регистрация Запомнить меня
Войти через:  Facebook Google Twitter Vk Yandex Mail.ru

Intohimo - I Am Doubt Defined - таба, видео

Печатать
Просмотров: 85
Уроки эстрадного вокала в Санкт-Петербурге
Intohimo is signed to the record label Snapping Fingers, Snapping Necks
http://www.snappingfingers.com/intohimo/

Drop C Tuning.

Guitar 1 & 2
[0:00]-[0:10]
|----------------------------------------------------------|
|------------------------------171717----------------------|
|--171717-999-101010-777-9999--x-x-x--999-121212-12121212--|
|--x-x-x--xxx-x-x-x--xxx-xxxx--141414-xxx-x-x-x--x-x-x-x---|
|--151515-777-8-8-8--555-7777---------777-101010-10101010--|
|----------------------------------------------------------|

|------------------------------|
|------------------------------|
|--171717-999-101010-777-9999--|
|--x-x-x--xxx-x-x-x--xxx-xxxx--|
|--151515-777-8-8-8--555-7777--|
|------------------------------|

Guitar 1
[0:10]-[0:13]
|---------------------------------------------|
|---------------------------------------------|
|--12------9-------12------9------------12p9--|
|-----9-10---10-9-----9-10---10-9--9h10-------|
|---------------------------------------------|
|---------------------------------------------|

Guitar 2
[0:10]-[0:13]
|---------------------------------------------|
|---------------------------------------------|
|----------9-9-9---------7-7-7----------12p9--|
|---0-0-0----------0-0-0-----------9h10-------|
|---0-0-0----------0-0-0----------------------|
|---0-0-0----------0-0-0----------------------|

Guitar 1
[0:13]-[0:20]
|------------|
|------------|
|------------|
|--5~--------|
|--3~--------|
|--3~--------|

Guitar 1
[0:20]-[0:26]
|------------|
|--8~---8~---|
|--9~---7~---|
|--7~---7~---|
|------------|
|------------|

Guitar 1
[0:26]-[0:32]                       [0:32]-[0:52]
|----------------------------------|----------------------------------|
|--13--13--13--13--12--12--14--14--|--13--13--13--13--12--12--12--12--|
|----12--12--12--12--12--12--12--12|----12--12--12--12--12--12--12--12|
|----------------------------------|----------------------------------|
|----------------------------------|----------------------------------|
|----------------------------------|----------------------------------|

Guitar 1
[0:52]-[1:05]
|----------------------------------------------------------|
|------------------------------171717----------------------|
|--171717-999-101010-777-9999--x-x-x--999-121212-12121212--|
|--x-x-x--xxx-x-x-x--xxx-xxxx--141414-xxx-x-x-x--x-x-x-x---|
|--151515-777-8-8-8--555-7777---------777-101010-10101010--|
|----------------------------------------------------------|

|------------------------------15-------15--------|
|---------------------------------12-13----13-12--|
|--171717-999-101010-777-9999---------------------|
|--x-x-x--xxx-x-x-x--xxx-xxxx---------------------|
|--151515-777-8-8-8--555-7777---------------------|
|-------------------------------------------------|


Guitar 2
[0:52]-[1:05]
|----------------------------------------------------------|
|------------------------------171717----------------------|
|--171717-999-101010-777-9999--x-x-x--999-121212-12121212--|
|--x-x-x--xxx-x-x-x--xxx-xxxx--141414-xxx-x-x-x--x-x-x-x---|
|--151515-777-8-8-8--555-7777---------777-101010-10101010--|
|----------------------------------------------------------|

|---------------------------------------------------|
|---------------------------------------------------|
|--171717-999-101010-777-9999--9999-9999-7777-7777--|
|--x-x-x--xxx-x-x-x--xxx-xxxx--xxxx-xxxx-xxxx-xxxx--|
|--151515-777-8-8-8--555-7777--7777-7777-5555-5555--|
|---------------------------------------------------|

Guitar 1 & 2
[1:06]-[1:15]
|----------------------------------------------------------|
|------------------------------171717----------------------|
|--171717-999-101010-777-9999--x-x-x--999-121212-12121212--|
|--x-x-x--xxx-x-x-x--xxx-xxxx--141414-xxx-x-x-x--x-x-x-x---|
|--151515-777-8-8-8--555-7777---------777-101010-10101010--|
|----------------------------------------------------------|

|------------------------------|
|------------------------------|
|--171717-999-101010-777-9999--|
|--x-x-x--xxx-x-x-x--xxx-xxxx--|
|--151515-777-8-8-8--555-7777--|
|------------------------------|

Guitar 1
[1:15]-[1:19]
|---------------------------------------------|
|---------------------------------------------|
|--12------9-------12------9------------12p9--|
|-----9-10---10-9-----9-10---10-9--9h10-------|
|---------------------------------------------|
|---------------------------------------------|

Guitar 2
[1:15]-[1:19]
|---------------------------------------------|
|---------------------------------------------|
|----------9-9-9---------7-7-7----------12p9--|
|---0-0-0----------0-0-0-----------9h10-------|
|---0-0-0----------0-0-0----------------------|
|---0-0-0----------0-0-0----------------------|

Guitar 1 & 2
[1:19]-[1:45]
|-------------------------------------------------|
|-------------------------------------------------|
|-------------------------------------------------|
|--3333-333----------------3333-3333-3------------|
|--3333-333------------3---3333-3333-3------------|
|--3333-333-0-7--7-7\-3-00-3333-3333-3-000-3-2-2--|
|
|---------------------------------------------|
|---------------------------------------------|
|---------------------------------------------|
|--3333-333---------3333-7777-7777-5555-5555--|
|--3333-333---------3333-7777-7777-5555-5555--|
|--3333-333-0-7--7\-3333-7777-7777-5555-5555--|
|
|x2

Guitar 1 & 2
[1:45]-[1:55]
|--------------------------------------|
|--------------------------------------|
|-----------------------12121212--12~--|
|--101010101010---9-99--10101010--10~--|
|--7-7-7-7-7-7----5-55--10101010--10~--|
|--7-7-7-7-7-7----5-55--10101010--10~--|

Guitar 1
[1:55]-[2:01]
|------------|
|--8~---8~---|
|--9~---7~---|
|--7~---7~---|
|------------|
|------------|


Guitar 1
[2:01]-[2:14]
|----------------------------------------------------------|
|------------------------------171717----------------------|
|--171717-999-101010-777-9999--x-x-x--999-121212-12121212--|
|--x-x-x--xxx-x-x-x--xxx-xxxx--141414-xxx-x-x-x--x-x-x-x---|
|--151515-777-8-8-8--555-7777---------777-101010-10101010--|
|----------------------------------------------------------|

|------------------------------15-------15--------|
|---------------------------------12-13----13-12--|
|--171717-999-101010-777-9999---------------------|
|--x-x-x--xxx-x-x-x--xxx-xxxx---------------------|
|--151515-777-8-8-8--555-7777---------------------|
|-------------------------------------------------|


Guitar 2
[2:01]-[2:14]
|----------------------------------------------------------|
|------------------------------171717----------------------|
|--171717-999-101010-777-9999--x-x-x--999-121212-12121212--|
|--x-x-x--xxx-x-x-x--xxx-xxxx--141414-xxx-x-x-x--x-x-x-x---|
|--151515-777-8-8-8--555-7777---------777-101010-10101010--|
|----------------------------------------------------------|

|---------------------------------------------------|
|---------------------------------------------------|
|--171717-999-101010-777-9999--9999-9999-7777-7777--|
|--x-x-x--xxx-x-x-x--xxx-xxxx--xxxx-xxxx-xxxx-xxxx--|
|--151515-777-8-8-8--555-7777--7777-7777-5555-5555--|
|---------------------------------------------------|

Guitar 1 & 2
[2:14]-[2:24]
|----------------------------------------------------------|
|------------------------------171717----------------------|
|--171717-999-101010-777-9999--x-x-x--999-121212-12121212--|
|--x-x-x--xxx-x-x-x--xxx-xxxx--141414-xxx-x-x-x--x-x-x-x---|
|--151515-777-8-8-8--555-7777---------777-101010-10101010--|
|----------------------------------------------------------|

|------------------------------|
|------------------------------|
|--171717-999-101010-777-9999--|
|--x-x-x--xxx-x-x-x--xxx-xxxx--|
|--151515-777-8-8-8--555-7777--|
|------------------------------|

Guitar 1
[2:24]-[2:28]
|---------------------------------------------|
|---------------------------------------------|
|--12------9-------12------9------------12p9--|
|-----9-10---10-9-----9-10---10-9--9h10-------|
|---------------------------------------------|
|---------------------------------------------|

Guitar 2
[2:24]-[2:28]
|---------------------------------------------|
|---------------------------------------------|
|----------9-9-9---------7-7-7----------12p9--|
|---0-0-0----------0-0-0-----------9h10-------|
|---0-0-0----------0-0-0----------------------|
|---0-0-0----------0-0-0----------------------|

Guitar 1
[2:28]-[3:21]
|--15-----------------------------------------15-----|
|-----13-12-13----12-13-12--10-12-13-12-10-12----12--|
|--------------12------------------------------------|
|----------------------------------------------------|
|----------------------------------------------------|
|----------------------------------------------------|

Guitar 2
[2:28]-[3:08]
|-----------------------------------------------|
|-----------------------------------------------|
|-----------------------------------------------|
|--3333-333-----------3333-7777-7777-5555-5555--|
|--3333-333-----------3333-7777-7777-5555-5555--|
|--3333-333-0-7--7-7\-3333-7777-7777-5555-5555--|
Добавлено: 28.09.2013
Другие материалы по этой песне:
  • Аккорды и текст

Страница создана 28.09.2013
http://primanota.ru/intohimo/i-am-doubt-defined-chords.htm
Привет, Гость.
Предлагаем пройти революционный курс по гитаре.
Подарок от PrimaNota.Ru, забирай!