PrimaNota.ru - самый крупный в мире бесплатный архив песенных текстов, аккордов, табулатур и нот


Into It Over It - Your Antique Organ - таба, видео

Регистрация Запомнить меня
Войти через:  Facebook Google Twitter Vk Yandex Mail.ru

Into It Over It - Your Antique Organ - таба, видео

Печатать
Просмотров: 93
Уроки эстрадного вокала в Санкт-Петербурге
Авторы: Evan Thomas Weiss

-------------------------------------------------------------------------------
                             YOUR ANTIQUE ORGAN - Into. It. Over. It.
-------------------------------------------------------------------------------
Tabbed by: Jackson


Tuning: Standard
Capo VII

There is more to the song than this. The chorus changes up to some other part that I haven't quite figured
out yet. This is played through most of it though. If anyone knows how to play the rest that would
be super helpful.

e|---------------------------------------------------------------------------|
B|---0-0-0-0-0-0-0-0-0-0-0-0-0-0-0-0-----------------------------------------|
G|---------------------------------------------------------------------------|
D|--2-2-1-1------------------------------------------------------------------|
A|----------4-4-2-2-------1-2-2-2-2------------------------------------------|
E|------------------4-4-4----------------------------------------------------|




************************************

| /   slide up
| \   slide down
| h   hammer-on
| p   pull-off
| ~   vibrato
| +   harmonic
| x   Mute note
| b   Bend
| pb  Pre-bend
| br  Bend release
| pbr Pre-bend release
| brb Bend release bend

************************************
Добавлено: 12.12.2015
Другие материалы по этой песне:
  • Аккорды и текст

Страница создана 12.12.2015
http://primanota.ru/into-it-over-it/your-antique-organ-chords.htm
Привет, Гость.
Предлагаем пройти революционный курс по гитаре.
Подарок от PrimaNota.Ru, забирай!