PrimaNota.ru - самый крупный в мире бесплатный архив песенных текстов, аккордов, табулатур и нот


Into It Over It - Wearing White - таба, видео

Регистрация Запомнить меня
Войти через:  Facebook Google Twitter Vk Yandex Mail.ru

Into It Over It - Wearing White - таба, видео

Печатать
Просмотров: 84
Tuning: EBBEBE

READ FIRST: This is my first tab, mostly done by ear with a little help watching him
play it live. You do
 not need to strum the top 2 strings, in fact I have found when you do you lose the moving notes, 
you
 can if you want to but it is not necessary as the notes are covered by the lower
strings. All strokes are
 downward except for the 16th note at the end of the main riff which is optional

x = mute strings, I do this by slapping with the strumming hand
( ) = optional, at the end of the main riff you can do single steps down 11-9-7 throwing
in a 16th note upward strum, it is not needed but I believe that is how Evan plays it
in the song.


intro 2 bars:   4:4
E ----------------------------------------|
B ----------------------------------------|
E 0---0---0---0---0---0---0---0-----------|
B 0---0---0---0---0---0---0---0   Repeat--| 2x
B 0---0---0---0---0---0---0---0-----------|
E 0---0---0---0---0---0---0---0-----------|

Main riff    5:4
E--------------------------------------------------------------------------|
B--------------------------------------------------------------------------|
E 0---0---0---0---0---0---0---0---0---x---0---0---0---0---0---0---0----0---|(0)-(0)-(0)
B 0---0---0---0---0---0---0---0---0---x---0---0---0---0---0---0---0----0---|(0)-(0)-(0)
B 4---4---4---5---5---5---7---7---7---x---7---7---7---9---9---9---0----0---|(0)-(0)-(0)
E 0---0---0---0---0---0---0---0---0---x---0---0---0---0---0---0---11---11--|(9)-(7)-(7)



Run
E---------------------------------------------------------------------------------|
B---------------------------------------------------------------------------------|
E 0---0---0---0----0-----0---0---0---0---x---0---0---0---0---0---0---0----0----0--|
B 0---0---0---0----0-----0---0---0---0---x---0---0---0---0---0---0---0----0----0--|
B 0---0---0---0----0-----0---0---0---0---x---4---4---4---5---5---5---7----7----7--|
E 9---9---9---11---11---11---7---7---7---x---0---0---0---0---0---0---0----0----0--|

E----------------------------------------------------------------------------------------|
B----------------------------------------------------------------------------------------|
E 0---0---0---0-----0----0----0----0----0----0----0----0----0----0----0---0---0---0---0--|
B 0---0---0---0-----0----0----0----0----0----0----0----0----0----0----0---0---0---0---0--|
B 9---9---9---16---16---16---16---16---16---16---16---16---16---16---16---7---7---7---7--|
E 0---0---0---0-----0----0----0----0----0----0----0----0----0----0----0---0---0---0---0--|

E -------------------------------|
B -------------------------------|
E 0---0---0---0---0---0---0---x--|
B 0---0---0---0---0---0---0---x--|
B 7---7---7---7---7---7---7---x--|
E 0---0---0---0---0---0---0---x--|


Ending Riff   5:4
E------------------------------------|
B------------------------------------|
E 0---0---0---0---0---0---0---0---0--|
B 0---0---0---0---0---0---0---0---0--|
B 4---4---4---5---5---5---7---7---7--|
E 0---0---0---0---0---0---0---0---0--|



Song Order:

Into
Main Riff x8
Run
Main Riff x4
Run
Main Riff x3
Ending Riff
Добавлено: 17.10.2013
Другие материалы по этой песне:
  • Аккорды и текст

Страница создана 17.10.2013
http://primanota.ru/into-it-over-it/wearing-white-chords.htm
Привет, Гость.
Предлагаем пройти революционный курс по гитаре.
Подарок от PrimaNota.Ru, забирай!