PrimaNota.ru - самый крупный в мире бесплатный архив песенных текстов, аккордов, табулатур и нот


Into It Over It - Spinning Thread - таба, видео

Регистрация Запомнить меня
Войти через:  Facebook Google Twitter Vk Yandex Mail.ru

Into It Over It - Spinning Thread - таба, видео

Печатать
Просмотров: 91
Уроки эстрадного вокала в Санкт-Петербурге
Авторы: Evan Thomas Weiss

-----------------------------------------------------------------------------
                     "SPINNING THREAD - INTO IT. OVER IT.
                             ALBUM: INTERSECTIONS
-----------------------------------------------------------------------------
Tabbed by: bhollif
E-mail: bradleyhollifield@yahoo.com

As requested by Colin,

Hey guys, this is my third Into it. Over it. tab. I learned this song and
tabbed it out by following Evan's acoustic session by Punk Tastic on
youtube. I assume it is played pretty much the same way on the album.

A few things you need to know:
I tabbed out sections that way it is not as confusing. Everything is still
played in order. I labeled a few parts so you know where your at (Verse,
chorus, bridge). Other than that I want to say that this may not be 100%
correct, use your ears and best judgement to decide how you want to play it.
Listen to the song while you learn, it will help. Anyways, thanks for
checking out the tab. Good luck.

Note: during the bridge, Evan plays the middle part a little different- he
plays it slower. If you know the song you should know what I'm talking
about.

Tuning: low to high C#/G#/C#/F/G#/C

Intro: x4

c |------------0------------|
G#|----------------------0--|
F |-------------------------|
C#|-----2/7h9-----0h2h4-----|
G#|--0----------------------|
C#|-------------------------|

Verse

c |------------0----------------------0------------|
G#|----------------------0----------------------0--|
F |------------------------------------------------|
C#|-----2/7h9-----0h2h4--------2/7h9-----0h2h4-----|
G#|--0----------------------0----------------------|
C#|------------------------------------------------|

c |------------0---------------------------------0-|
G#|----------------------0------------0------------|
F |-----------------------------------------3/6----|
C#|-----2/7h9-----0h2h4--------0h2h4-----0---------|
G#|--0----------------------2----------------------|
C#|------------------------------------------------|

c |------------0----------------------0------------|
G#|----------------------0----------------------0--|
F |------------------------------------------------|
C#|-----2/7h9-----0h2h4--------2/7h9-----0h2h4-----|
G#|--0----------------------0----------------------|
C#|------------------------------------------------|

c |------------0---------------------------------0-|
G#|----------------------0------------0------------|
F |-----------------------------------------3/6----|
C#|-----2/7h9-----0h2h4--------0h2h4-----0---------|
G#|--0----------------------2----------------------|
C#|------------------------------------------------|

c |--------------------------------------|
G#|-----------------------------------0--|
F |-----------------0--------0-----------|
C#|--------------------------------------|
G#|-----0h2h4p2p0h2/7-----5h7-7p5h7p5----|
C#|--4--------------0--5--------------0--|

Played before next verse: x4

c |------------0------------|
G#|----------------------0--|
F |-------------------------|
C#|-----2/7h9-----0h2h4-----|
G#|--0----------------------|
C#|-------------------------|

Verse (timing is a little different here)

c |------------0----------------------0------------|
G#|----------------------0----------------------0--|
F |------------------------------------------------|
C#|-----2/7h9-----0h2h4--------2/7h9-----0h2h4-----|
G#|--0---------------------------------------------|
C#|------------------------------------------------|

c |------------0---------------------------------0-|
G#|----------------------0------------0------------|
F |-----------------------------------------3/6----|
C#|-----2/7h9-----0h2h4--------0h2h4-----0---------|
G#|--0----------------------2----------------------|
C#|------------------------------------------------|

c |------------0----------------------0------------|
G#|----------------------0----------------------0--|
F |------------------------------------------------|
C#|-----2/7h9-----0h2h4--------2/7h9-----0h2h4-----|
G#|--0---------------------------------------------|
C#|------------------------------------------------|

c |------------0---------------------------------0-|
G#|----------------------0------------0------------|
F |-----------------------------------------3/6----|
C#|-----2/7h9-----0h2h4--------0h2h4-----0---------|
G#|--0----------------------2----------------------|
C#|------------------------------------------------|

c |-----------------------------------------|
G#|-------------------------------------0---|
F |-----------------0-----------0-----------|
C#|--------------------0--------------------|
G#|-----0h2h4p2p0h2/7--------5h7-7p5h7p5----|
C#|--4--------------0-----5-------------0---|

Chorus

c |------------0---------------------------0---------------|
G#|-------------------------0---------------------------0--|
F |--------------------------------------------------------|
C#|--------------------------------------------------------|
G#|-----7h9p7--------7h9p7----------7h9p7--------7h9p7-----|
C#|--7------------7------------7h9------------0------------|

c |-----------------------------------------|
G#|-------------------------------------0---|
F |-----------------0-----------0-----------|
C#|--------------------0--------------------|
G#|-----0h2h4p2p0h2/7--------5h7-7p5h7p5----|
C#|--4--------------0-----5-------------0---|

c |------------0---------------------------0---------------|
G#|-------------------------0---------------------------0--|
F |--------------------------------------------------------|
C#|--------------------------------------------------------|
G#|-----7h9p7--------7h9p7----------7h9p7--------7h9p7-----|
C#|--7------------7------------7h9------------0------------|

c |------------0---------------------------0---------------|
G#|-------------------------0---------------------------0--|
F |--------------------------------------------------------|
C#|--------------------------------------------------------|
G#|-----7h9p7--------7h9p7----------7h9p7--------7h9p7-----|
C#|--7------------7------------7h9------------0------------|

c |------------0---------------------------0---------------|
G#|-------------------------0---------------------------0--|
F |--------------------------------------------------------|
C#|--------------------------------------------------------|
G#|-----7h9p7--------7h9p7----------7h9p7--------7h9p7-----|
C#|--5------------5--------------0------------0------------|

Bridge

c |-------------------------------------------------------------------|
G#|-------------------------------------------------------------------|
F |--7-----7-6-----6-7-----7-8-----8-10---10-10---10-10---10-8-----8--|
C#|----7-------7-------7-------7--------7-------7-------7------7------|
G#|-------------------------------------------------------------------|
C#|--7---7---7---7---5---5---5---5---0---0---9---9---0---0---8---8----|

c |-------------------------------------------------------------------|
G#|-------------------------------------------------------------------|
F |--7-----7-6-----6-7-----7-8-----8-10---10-10---10-10---10-8-----8--|
C#|----7-------7-------7-------7--------7-------7-------7------7------|
G#|-------------------------------------------------------------------|
C#|--7---7---7---7---5---5---5---5---0---0---9---9---0---0---8---8----|

c |-------------------------------------------------------------------|
G#|-------------------------------------------------------------------|
F |--7-----7-6-----6-7-----7-8-----8-10---10-10---10-10---10-8-----8--|
C#|----7-------7-------7-------7--------7-------7-------7------7------|
G#|-------------------------------------------------------------------|
C#|--7---7---7---7---5---5---5---5---0---0---9---9---0---0---8---8----|

c |--------------------|
G#|--0--0--0--0--0-----|
F |--2--3--3--5--7/10--|
C#|--2--3--4--5--7/11--|
G#|--------0-----0--0--|
C#|--2--3--0--5--7--0--|

c |------------0----------------------0------------|
G#|----------------------0----------------------0--|
F |------------------------------------------------|
C#|-----2/7h9-----0h2h4--------2/7h9-----0h2h4-----|
G#|--0---------------------------------------------|
C#|------------------------------------------------|

c |------------0---------------------------------0-|
G#|----------------------0------------0------------|
F |-----------------------------------------3/6----|
C#|-----2/7h9-----0h2h4--------0h2h4-----0---------|
G#|--0----------------------2----------------------|
C#|------------------------------------------------|

c |------------0----------------------0------------|
G#|----------------------0----------------------0--|
F |------------------------------------------------|
C#|-----2/7h9-----0h2h4--------2/7h9-----0h2h4-----|
G#|--0----------------------0----------------------|
C#|------------------------------------------------|

c |------------0---------------------------------0-|
G#|----------------------0------------0------------|
F |-----------------------------------------3/6----|
C#|-----2/7h9-----0h2h4--------0h2h4-----0---------|
G#|--0----------------------2----------------------|
C#|------------------------------------------------|

c |-----------------------------------------|
G#|-------------------------------------0---|
F |-----------------0-----------0-----------|
C#|--------------------0--------------------|
G#|-----0h2h4p2p0h2/7--------5h7-7p5h7p5----|
C#|--4--------------0-----5-------------0---|

Chorus

c |------------0---------------------------0---------------|
G#|-------------------------0---------------------------0--|
F |--------------------------------------------------------|
C#|--------------------------------------------------------|
G#|-----7h9p7--------7h9p7----------7h9p7--------7h9p7-----|
C#|--7------------7------------7h9------------0------------|

c |----------------------------------------|
G#|-------------------------------------0--|
F |-----------------0-----------0----------|
C#|--------------------0-------------------|
G#|-----0h2h4p2p0h2/7--------5h7-7p5h7p5---|
C#|--4--------------0-----5-------------0--|

c |------------0---------------------------0---------------|
G#|-------------------------0---------------------------0--|
F |--------------------------------------------------------|
C#|--------------------------------------------------------|
G#|-----7h9p7--------7h9p7----------7h9p7--------7h9p7-----|
C#|--7------------7------------7h9------------0------------|

c |------------0---------------------------0---------------|
G#|-------------------------0---------------------------0--|
F |--------------------------------------------------------|
C#|--------------------------------------------------------|
G#|-----7h9p7--------7h9p7----------7h9p7--------7h9p7-----|
C#|--7------------7------------7h9------------0------------|

c |------------0---------------------------0---------------|
G#|-------------------------0---------------------------0--|
F |--------------------------------------------------------|
C#|--------------------------------------------------------|
G#|-----7h9p7--------7h9p7----------7h9p7--------7h9p7-----|
C#|--7------------7------------7h9------------0------------|

c |------------0---------------------------0---------------|
G#|-------------------------0---------------------------0--|
F |--------------------------------------------------------|
C#|--------------------------------------------------------|
G#|-----7h9p7--------7h9p7----------7h9p7--------7h9p7-----|
C#|--5------------5--------------0------------0------------|

Email me if you need help. Thanks.

************************************

| /   slide up
| \   slide down
| h   hammer-on
| p   pull-off
| ~   vibrato
| +   harmonic
| x   Mute note
| b   Bend
| pb  Pre-bend
| br  Bend release
| pbr Pre-bend release
| brb Bend release bend

************************************
Добавлено: 18.03.2014
Другие материалы по этой песне:
  • Аккорды и текст

Страница создана 18.03.2014
http://primanota.ru/into-it-over-it/spinning-thread-chords.htm
Привет, Гость.
Предлагаем пройти революционный курс по гитаре.
Подарок от PrimaNota.Ru, забирай!