PrimaNota.ru - самый крупный в мире бесплатный архив песенных текстов, аккордов, табулатур и нот


Into It Over It - No Sleep Til Humboldt - таба, видео

Регистрация Запомнить меня
Войти через:  Facebook Google Twitter Vk Yandex Mail.ru

Into It Over It - No Sleep Til Humboldt - таба, видео

Печатать
Просмотров: 57
-------------------------------------------------------------------------------
                No Sleep Til Humboldt - Into It. Over It.
-------------------------------------------------------------------------------
Tabbed by: Joe H
E-mail: joey2_96@yahoo.com

Tuning: D#/G#/C#/F/A#/D#


Evan starts the song off with some picking, and I think this is a good approximation of what he's doing
if it isn't 100% correct

X8 on the fourth time bend the note the B string 
D#|------------------0--------------------------------------------------------|
A#|------------------9--------------------------------------------------------|
F |-------10--------10--------------------------------------------------------|
C#|--11---11---11---11--------------------------------------------------------|
G#|---0---------0-------------------------------------------------------------|
D#|---------------------------------------------------------------------------|

Start strumming here

X4 the strumming speeds up on the last chord the second time through
D#|---0--------0--0----0------------------------------------------------------|
A#|---9--------0--7----0------------------------------------------------------|
F |--10--------0--0----6------------------------------------------------------|
C#|--11--------7--7----7------------------------------------------------------|
G#|---0--------0--0----5------------------------------------------------------|
D#|------------7--7-----------------------------------------------------------|

X1
D#|--0----0-----0---0---------------------------------------------------------|
A#|--0----0-----0--10---------------------------------------------------------|
F |--3----8----10---0---------------------------------------------------------|
C#|--4----9----10--10---------------------------------------------------------|
G#|--4----9-----0---0---------------------------------------------------------|
D#|--2----7----10--10---------------------------------------------------------|

X1
D#|---------------------------------------------------------------------------|
A#|--14--14--14--14--14-------------------------------------------------------|
F |---0---0---0---0---0-------------------------------------------------------|
C#|--14--14--14--14--14-------------------------------------------------------|
G#|---0---0---0---0--12-------------------------------------------------------|
D#|--14--13--12--11--10-------------------------------------------------------|

Until the end:
D#|----0-----0----------------------------------------------------------------|
A#|---14----14----------------------------------------------------------------|
F |----0-----0----------------------------------------------------------------|
C#|---14----14----------------------------------------------------------------|
G#|----0----12----------------------------------------------------------------|
D#|---------10----------------------------------------------------------------|



************************************

| /   slide up
| \   slide down
| h   hammer-on
| p   pull-off
| ~   vibrato
| +   harmonic
| x   Mute note
| b   Bend
| pb  Pre-bend
| br  Bend release
| pbr Pre-bend release
| brb Bend release bend

************************************
Добавлено: 09.06.2016
Другие материалы по этой песне:
  • Аккорды и текст

Страница создана 09.06.2016
http://primanota.ru/into-it-over-it/no-sleep-til-humboldt-chords.htm
Привет, Гость.
Предлагаем пройти революционный курс по гитаре.
Подарок от PrimaNota.Ru, забирай!