- самый крупный в мире бесплатный архив песенных текстов, аккордов, табулатур и нот

Into It Over It - No Good Before Noon - таба, бас-таба, видео

Регистрация Запомнить меня
Войти через:  Facebook Google Twitter Vk Yandex

Into It Over It - No Good Before Noon - таба, бас-таба, видео

Просмотров: 110
                             No Good Before Noon - Into It. Over It.
Tabbed by: Josh Jurss

I really love this song and I had to figure out how to play it. I'm sure others want to learn
it too so I've decided to tab it out. This is my first tab.  Feel free to shoot me any suggestions
or edits you may have.

Tuning: DADF#Ad

d |------------------|
A |------------------|
F#|------------------|  x4
D |---0---0---0---0--|
A |--5---5---5---5---|
D |-5---5---5---5----|

d |---------------------------------------------------------------------------------------|
A |--------------------0---------------0---------------------------------0----------------|
F#|---------------0-------------------------0----------------0------------------0-------7-|  x2
D |---0---0----------------0---0----------------0---0---------------------------------0---|
A |--5---5----5h7--7/9----5---5----5h7--7/9----5---5-----5h7---7\5----10-----10-----7-----|
D |-5---5---0------------5---5---0------------5---5---0-------------9------0------7-------|

d |---------------------------------------------------------|
A |------0------------------------0------------0------------|
F#|-------------0-------7----------------0-----------0------| x1
D |-------------------0---------------------------5---------|
A |---10-----10-----7----------10-----10---------------7\5--|
D |-9------0------7----------9------0--------7--------------|

That's the gist of it.  You repeat the form once more except you only play
the intro part twice and you end with one note on the 5th fret on the low
D.  Enjoy!


| /   slide up
| \   slide down
| h   hammer-on
| p   pull-off
| ~   vibrato
| +   harmonic
| x   Mute note
| b   Bend
| pb  Pre-bend
| br  Bend release
| pbr Pre-bend release
| brb Bend release bend

Добавлено: 15.11.2013
Другие материалы по этой песне:

Страница создана 01.11.2013
Привет, Гость.
Предлагаем пройти революционный курс по гитаре.
Подарок от PrimaNota.Ru, забирай!