PrimaNota.ru - самый крупный в мире бесплатный архив песенных текстов, аккордов, табулатур и нот


Into It Over It - Batsto - аккорды и текст, видео

Регистрация Запомнить меня
Войти через:  Facebook Google Twitter Vk Yandex Mail.ru

Into It Over It - Batsto - аккорды и текст, видео

Печатать
Просмотров: 67
Batsto
Into It Over It
-------------------------------------------------------------------------------
                             Batsto - Into It. Over It.
-------------------------------------------------------------------------------
Tabbed by: Joe H
E-mail: joey2_96@yahoo.com

Tuning: D/A/D/F#/A/D

A really simple but awesome song

Chords

      G     A     G
D |---0-----0-----0--------------------------------------------------------------|
A |---0-----0-----0--------------------------------------------------------------|
F#|---0-----7-----5--------------------------------------------------------------|
D |--(4)----0-----0--------------------------------------------------------------|
A |---5-----7-----5--------------------------------------------------------------|
D |---5-----7-----5--------------------------------------------------------------|

G   A   X4

Verse
G                                       A
Remembering the year that you were gone
G                  
A series of decisions
          A
Unhealthy living
G                 A
Writing novels in monitored time
G   A  X1
G                               A
Cold pavement under static sky
G                                   A             
Gaining patience, but losing sight
G                            A             G    A
We wrote off our problems as better times



Chorus
    G                         A       G      A   X2
But hey, you couldn't sell the stories anyway



Verse
G                                                  A
In a battle with New England of who knows you best
G                              A
A mediocre vote of confidence
G              A            G     
That poor boy    won't know what hit him
A               G                              A
If and when you tell commitment to take a hike
         G              A                  G
It's the same old story,   so help me if I try
                  A
To make an honest effort this time


Chorus
  G                         A         G      A   X4
But hey, you couldn't sell the stories anyway

End on A
Добавлено: 10.04.2016
Другие материалы по этой песне:
  • Аккорды и текст

Страница создана 10.04.2016
http://primanota.ru/into-it-over-it/batsto-chords.htm
Привет, Гость.
Предлагаем пройти революционный курс по гитаре.
Подарок от PrimaNota.Ru, забирай!