PrimaNota.ru - самый крупный в мире бесплатный архив песенных текстов, аккордов, табулатур и нот


Into It Over It - 53 Accurate - таба, видео

Регистрация Запомнить меня
Войти через:  Facebook Google Twitter Vk Yandex Mail.ru

Into It Over It - 53 Accurate - таба, видео

Печатать
Просмотров: 142
Уроки эстрадного вокала в Санкт-Петербурге
53% Accurate by Into It. Over It.
This song is in DADGAd
Finger pick the intro/verse/chorus
Pick for the solo

Intro:
d|-------------------------------------------------------------------|
A|--------0-------0-------0-------0-------0-------0-------0-------0--|
G|----0-------0-------0-------0-------0-------0-------0-------0------|
D|-------------------------------------------------------------------| 
A|-------------------------------------------------------------------|
D|--9---9---9---9---7---7---7---7---5---5---5---5---5---5---5---5----|
           
            Repeat x2

Verse:
d|-------------------------------------------------------------------|
A|--------0-------0-------0-------0-------0-------0-------0-------0--|
G|----0-------0-------0-------0-------0-------0-------0-------0------|
D|-------------------------------------------------------------------| 
A|-------------------------------------------------------------------|
D|--9---9---9---9---7---7---7---7---5---5---5---5---5---5---5---5----|

            Repeat x4

Chorus:
d|-------------------------------------------------------------------|
A|--------0-------0-------0-------0-------0-------0-------0-------0--|
G|----0-------0-------0-------0-------0-------0-------0-------0------|
D|-------------------------------------------------------------------| 
A|-------------------------------------------------------------------|
D|--4---4---2---2---2---2---4---4---4---4---5---5---5---5---5---5----|

            Repeat x2

Solo:                                                        
d|-------------------------------------------------------------------|
A|------------------------------------------------------------12-----|
G|---------------------------------7p6------7-11-----6h7-9/11--------|
D|-------4-----4h7-7-------4-7/9/7------7h9-----7h9-----------------|
A|-----5---4h5-------5h7p5-------------------------------------------|
D|-7h9---------------------------------------------------------------|

d|-------------------------------------------------|
A|--9--9--9-7-4-5-5h7p5-4h5-7p5h7p5----------------|
G|-11-11-11-9-6-7----------------------------------|
D|-------------------------------------------------|
A|-------------------------------------------------|
D|-------------------------------------------------|

d|-------------------------------------------------|
A|-------------------------------------------------|
G|---------------------------------7p6------7-11---|
D|-------4-----4h7-7-------4-7/9/7------7h9--------|
A|-----5---4h5-------5h7p5-------------------------|
D|-7h9---------------------------------------------|

d|-<12>------<18>------<14>------<14>--------------|
A|------<12>------<18>------<14>------<18>---------|
G|-------------------------------------------------|
D|-------------------------------------------------|
A|-------------------------------------------------|
D|-------------------------------------------------|

Verse:
d|-------------------------------------------------------------------|
A|--------0-------0-------0-------0-------0-------0-------0-------0--|
G|----0-------0-------0-------0-------0-------0-------0-------0------|
D|-------------------------------------------------------------------| 
A|-------------------------------------------------------------------|
D|--9---9---9---9---7---7---7---7---5---5---5---5---5---5---5---5----|

            Repeat x4

Chorus:
d|-------------------------------------------------------------------|
A|--------0-------0-------0-------0-------0-------0-------0-------0--|
G|----0-------0-------0-------0-------0-------0-------0-------0------|
D|-------------------------------------------------------------------| 
A|-------------------------------------------------------------------|
D|--4---4---2---2---2---2---4---4---4---4---5---5---5---5---5---5----|

            Repeat x2

Bridge: Same as verse just emphasize the notes a bit differently.
d|-------------------------------------------------------------------|
A|--------0-------0-------0-------0-------0-------0-------0-------0--|
G|----0-------0-------0-------0-------0-------0-------0-------0------|
D|-------------------------------------------------------------------| 
A|-------------------------------------------------------------------|
D|--9---9---9---9---7---7---7---7---5---5---5---5---5---5---5---5----|

            Repeat x4

Chorus:
d|-------------------------------------------------------------------|
A|--------0-------0-------0-------0-------0-------0-------0-------0--|
G|----0-------0-------0-------0-------0-------0-------0-------0------|
D|-------------------------------------------------------------------| 
A|-------------------------------------------------------------------|
D|--4---4---2---2---2---2---4---4---4---4---5---5---5---5---5---5----|

            Repeat x4

End on:
d|-0-|
A|-0-|
G|-0-|
D|-0-|
A|-0-|
D|-5-|

Order of Song Parts:
Intro  x2
Verse  x4
Chorus x2
Solo
Verse  x4
Chorus x2
Bridge x4
Chorus x4
Добавлено: 05.10.2013
Другие материалы по этой песне:
  • Аккорды и текст

Страница создана 05.10.2013
http://primanota.ru/into-it-over-it/53-accurate-chords.htm
Привет, Гость.
Предлагаем пройти революционный курс по гитаре.
Подарок от PrimaNota.Ru, забирай!