PrimaNota.ru - самый крупный в мире бесплатный архив песенных текстов, аккордов, табулатур и нот


Into Eternity - Pain Through Breathing - текст песни, таба, видео

Регистрация Запомнить меня
Войти через:  Facebook Google Twitter Vk Yandex Mail.ru

Into Eternity - Pain Through Breathing - текст песни, таба, видео

Печатать
Просмотров: 102
-------------------------------------------------------------------------------
                     Pain Through Breathing - Into Eternity
-------------------------------------------------------------------------------

Tabbed by: Francesco Lo Presti
Email: power_gamer_6@hotmail.com

Tuning: Two whole steps down - C F A# D# G C

\"/\"- Slide up from below
\"~\"- Let ring
\"<>\"- Tremolo pick

==Intro Riff==
This is the basic intro riff that\'s also repeated just before the solo kicks in.

Guitar one:
C |----------------------------------------------------------------------|
G |----------------------------------------------------------------------|
D#|----------------------------------------------------------------------|
A#|--99999101010----------------------------------4444-------------------|
F |--777777-7-7--99999101010-1010101010121212-77776666-------------------|
C |--------------777777-7-7--8-8-8-8-8-8-8-8--5555-----------------------|x2

Guitar two:
C |----------------------------------------------------------------------|
G |----------------------------------------------------------------------|
D#|----------------------------------------------------------------------|
A#|--99999101010----------------------------------4444-------------------|
F |--777777-7-7--99999101010-1010101010121212-77776666-------------------|
C |--------------777777-7-7--8-8-8-8-8-8-8-8--5555-----------------------|x2

==Arpeggios==
During the arpeggios, one guitar keeps the rhythm, and the other guitar plays  the arpeggios.

Guitar one:
C |----------------------------------------------------------------------|
G |----------------------------------------------------------------------|
D#|----------------------------------------------------------------------|
A#|--99999101010----------------------------------4444-------------------|
F |--777777-7-7--99999101010-1010101010121212-77776666-------------------|
C |--------------777777-7-7--8-8-8-8-8-8-8-8--5555-----------------------|x2

Guitar two:
C |--/19-15-----------------14-15-7-3---------------3-------5-7-8--------|
G |--------17-------------12----------5-----------5---5-7-8-------7~-----|
D#|----------16---------11--------------4-------4------------------------|
A#|------------17-----12------------------5---5--------------------------|
F |--------------19-14-----------------------7---------------------------|
C |----------------------------------------------------------------------|x2

==Post Arpeggio Licks==
After the arpeggios, those sliding licks are played in two different keys, with a rhythm 
over-top.

So, Guitar one [rhythm]:
C |----------------------------------------------------------------------|
G |----------------------------------------------------------------------|
D#|----------------------------------------------------------------------|
A#|--99999101010----------------------------------4444-------------------|
F |--777777-7-7--99999101010-1010101010121212-77776666-------------------|
C |--------------777777-7-7--8-8-8-8-8-8-8-8--5555-----------------------|x2

Guitar two:                         Start this part on the second
                                    time the rhythm starts again.
C |----------------------------------------------------------------------|
G |--/5--5--/7--5--/8--5--10--8--7--/<8>-8--<10>-8--<12>-8--13--12~~-----|
D#|-------4------4------4-----------------7-------7-------7--------------|
A#|----------------------------------------------------------------------|
F |----------------------------------------------------------------------|
C |----------------------------------------------------------------------|

Guitar three:                           Start this part on the second time
                                        the rhythm starts again.
C |-------------------------------------------------------------------------|
G |--/8--8--/10--8--/12--8--13--12--10--/<15>-15--<17>-15--<19>-15--20--19~~|
D#|-------7-------7-------7---------------------14-------14------14---------|
A#|-------------------------------------------------------------------------|
F |-------------------------------------------------------------------------|
C |-------------------------------------------------------------------------|

Solo outro is just the intro riff.
Добавлено: 12.03.2012
Другие материалы по этой песне:

Страница создана 24.02.2012
http://primanota.ru/into-eternity/pain-through-breathing-chords.htm
Привет, Гость.
Предлагаем пройти революционный курс по гитаре.
Подарок от PrimaNota.Ru, забирай!