PrimaNota.ru - самый крупный в мире бесплатный архив песенных текстов, аккордов, табулатур и нот


Into Eternity - Holding Onto Emptiness - текст песни, таба, видео

Регистрация Запомнить меня
Войти через:  Facebook Google Twitter Vk Yandex Mail.ru

Into Eternity - Holding Onto Emptiness - текст песни, таба, видео

Печатать
Просмотров: 107
Into Eternity - Holding onto Emptiness
Check out www.intoeternity.com

Tabbed by Peter Kondrup

Don't know if IE uses standard or drop C but drop is the easiest and I'm lazy so ...

D|----------------------------------------|
A|----------------------------------------|
F|-------------------------------8x8x8x8--|
C|-00-00-00-00-000- x3 -00-00-0008x8x8x8--|
G|-00-00-00-00-000------00-00-0006x6x6x6--|
C|-00-00-00-00-000------00-00-000---------|


D|----------------------------------|
A|----------------------------------|
F|----------------------------------|
C|---3--3-3--2--2-2--5--5-5--3--3-3-|
G|-11-11-1-00-00-0-33-33-3-11-11-1--|
C|----------------------------------|


D|--------------------
A|--------------------
F|--------------------
C|---7---7-7--7---7-7-
G|-005000505005000505-
C|-00-000-0-00-000-0--
      \3/      \3/

  Solo backing
D|------------------------------------------------------------------|
A|------------------------------------------------------------------|
F|---------------523------35-------7------75-------3-------5--------|
C|--------------0523------35-------7------75-------3-------5--------|
G|--------------0301------13-------5------53-------1-------3--------|
C|--------------0---------------------------------------------------|

D|------------------------------------------------------------------|
A|------------------------------------------------------------------|
F|-777777775-------999999997-------33333333222222225555555577777777-|
C|-777777775-------999999997-------33333333222222225555555577777777-|
G|-555555553-------777777775-------11111111000000003333333355555555-|
C|------------------------------------------------------------------|


  Solo (don't hunt me down if this isn't 100 % correct)
D|-----------------------------------------------10-8------|
A|------8-88/10----8-/11-10---------8-88/10----8------1110-|
F|-7---7-7--------7-7----------7---7-7--------7-7----------|
C|---------------------------------------------------------|
G|---------------------------------------------------------|
C|---------------------------------------------------------|

          T          T          T         T
D|-10-12-13p12p10p8-13p12p10p8-12p10p8p6-12p10p8p6---------------|
A|-------------------------------------------------10p8p6-8p6p5--|
F|-------------------------------------------------------------7-|
C|---------------------------------------------------------------|
G|---------------------------------------------------------------|
C|---------------------------------------------------------------|


D|-----------------------------12h13-12--12--12--------|
A|------------8---6-5h6p5--------------13--13--1313h15-|
F|--------7910-----------55h7--------------------------|
C|----7810---------------------------------------------|
G|-810-------------------------------------------------|
C|-----------------------------------------------------|
   |notes muted|

D|12-13-15-17-18-20-20b(22)-20p17-20b(22)-|
A|----------------------------------------|
F|----------------------------------------|
C|----------------------------------------|
G|----------------------------------------|
C|----------------------------------------|

Enjoy!
Добавлено: 18.04.2012
Другие материалы по этой песне:
  • Аккорды и текст

Страница создана 09.03.2012
http://primanota.ru/into-eternity/holding-onto-emptiness-chords.htm
Привет, Гость.
Предлагаем пройти революционный курс по гитаре.
Подарок от PrimaNota.Ru, забирай!