PrimaNota.ru - самый крупный в мире бесплатный архив песенных текстов, аккордов, табулатур и нот


Inti-Illimani - Mercado Testaccio - таба, видео

Регистрация Запомнить меня
Войти через:  Facebook Google Twitter Vk Yandex Mail.ru

Inti-Illimani - Mercado Testaccio - таба, видео

Печатать
Просмотров: 29
Inti Illimani - Mercado Testaccio

Tabs by Alberto Del Roscio

E ------------------------------------------|
B -0-0---0---0--------0-0---0---0-----------|
G -----2---2---2-0--------2---2-------------|
D ------------------------------------------|
A ------------------------------------------|
E ------------------------------------------|
        

E ------------------------------------------|
B -0h1-3-3-3-1-3---3-1-3---3-1--------------|
G ---------------2-------2------------------|
D ------------------------------------------|
A ------------------------------------------|
E ------------------------------------------|


E ------------------------------------------|
B -0-0---0---0--------0-0---0---0-----------|
G -----2---2---2-0--------2---2-------------|
D ------------------------------------------|
A ------------------------------------------|
E ------------------------------------------|


E -------------------0----------------------|
B -0h1-3-3-3-1-3---3---3-1-0-1-0------------|
G ---------------2---------------2-0--------|
D ------------------------------------------|
A ------------------------------------------|
E ------------------------------------------|


E -0-0---0---0--------0-3-2-0---0-------------------------------|
B -----4---4---1-0------------4---3-1-0-1-0----0-1-0---0--------|
G -------------------------------------------3-------3---0------|
D --------------------------------------------------------------|
A --------------------------------------------------------------|
E --------------------------------------------------------------|


E -0-0---0---0--------0-3-2-0---0-------------------------------|
B -----4---4---1-0------------4---3-1-0-1-0----0-1-0-1-3-1-0----|
G -------------------------------------------3---------------2--|
D --------------------------------------------------------------|
A --------------------------------------------------------------|
E --------------------------------------------------------------|


E --------------------------------------------------------------|
B -----------------1-0----------------------1-0-----------------|
G -1-2-2-2-1-2---2-----2----1-2-2-2-1-2---2----2-0--------------|
D -------------2------------------------2-----------------------|
A --------------------------------------------------------------|
E --------------------------------------------------------------|


E -----------------------------------------------------------3--|
B ------------------------------------------------------0-------|
G -0-0---0---0--------0-0---0---0---------0-0---0---0-2---------|
D -----4---4---4-2--------4---4---4-2---------4---4-------------|
A --------------------------------------------------------------|
E --------------------------------------------------------------|
Добавлено: 28.03.2016
Другие материалы по этой песне:
  • Аккорды и текст

Страница создана 28.03.2016
http://primanota.ru/inti-illimani-2/mercado-testaccio-chords.htm
Привет, Гость.
Предлагаем пройти революционный курс по гитаре.
Подарок от PrimaNota.Ru, забирай!