PrimaNota.ru - самый крупный в мире бесплатный архив песенных текстов, аккордов, табулатур и нот


Inti-Illimani - A La Caza Del Ñandú - таба, видео

Регистрация Запомнить меня
Войти через:  Facebook Google Twitter Vk Yandex Mail.ru

Inti-Illimani - A La Caza Del Ñandú - таба, видео

Печатать
Просмотров: 54
Guitarra
Preludio

E||--------------------------------------|
B||--------0--------0-----0-----------0--|
G||--------------------------------------|
D||-----4--------------4-----------------|
A||--2--------4-----------------4--------|
E||--------------2-----------2-----2-----|

--------------------------------------|
--------0--------0-----0-----------0--|
--------------------------------------|
-----4--------------------------------|
--2--------4-----------------4--------|
--------------2-----2-----2-----2-----|


--------------------------------------|
--------0--------0-----0-----------0--|
--------------------------------------|
--------------------------------------|
--2--------4-----------------4--------|
-----2--------2-----2-----2-----2-----|


--------------------------------------|
--------0--------0-----0-----------0--|
--------------------------------------|
--------------------------------------|
--2--------4-----------------4--------|
-----2--------2-----2-----2-----2-----|


-------------2-----------|
-------------------------|
-------------4-----------|
-------------4-----------|
-------------2-----------|
-------------2-----------|


Tema


---------------------------|
-----------------7--8--7---|
---------------------------|
-----------------9---------|
---------------------------|
---------------------------|


----7----7----10-------------------|
--------------------7----7--8--7---|
----0------------------------------|
-------------------------9---------|
-----------------------------------|
--------------------0--------------|


----7----7----10----12--------------|
--------------------------7--8--7---|
----0-------------------------------|
--------------------11----9---------|
------------------------------------|
------------------------------------|


----7----7----10-------------------|
--------------------7----7--8--7---|
----0------------------------------|
-------------------------9---------|
-----------------------------------|
--------------------0--------------|


----7----7----10----12---------14--12--10---|
---------------------------10---------------|
----0---------------------------------------|
--------------------11---------12-----------|
--------------------------------------------|
--------------------------------------------|


----12------------10--9-------------0---|
-----------10--8-----------7-----7------|
------------------------------9---------|
----11---------9------------------------|
------------------------------0---------|
----------------------------------------|


----7--0---------------------0------------|
-------------0--10--8-----7-----7--8--7---|
----------7-------------------------------|
-----------------------7--------9---------|
------------------------------------------|
------------------------------------------|


----7----7----10-------------------|
--------------------7----7--8--7---|
----0------------------------------|
-------------------------9---------|
-----------------------------------|
--------------------0--------------|


----7----7----10----12--------------|
--------------------------7--8--7---|
----0-------------------------------|
--------------------11----9---------|
------------------------------------|
------------------------------------|


----7----7----10-------------------|
--------------------7----7--8--7---|
----0------------------------------|
-------------------------9---------|
-----------------------------------|
--------------------0--------------|


----7----7----10----12---------14--12--10---|
---------------------------10---------------|
----0---------------------------------------|
--------------------11---------12-----------|
--------------------------------------------|
--------------------------------------------|


----12------------10--9-------------0---|
-----------10--8-----------7-----7------|
------------------------------9---------|
----11---------9------------------------|
------------------------------0---------|
----------------------------------------|


----7--0---------------------0--0-----0---|
-------------0--10--8-----7--------7------|
----------7-------------------------------|
-----------------------7------------------|
------------------------------------------|
------------------------------------------|


----7--0-----0----24----0-----0---|
---------------------------7------|
----------7-----------------------|
----------------------------------|
------------------------0---------|
----------------------------------|


----7--0----------------------------------|
-------------0--10--8-----7-----7--8--7---|
----------7------------------9------------|
-----------------------7--------9---------|
------------------------------------------|
------------------------------------------|


----7----7----10-------------------|
--------------------7----7--8--7---|
----0------------------------------|
-------------------------9---------|
-----------------------------------|
--------------------0--------------|


----7----7----10----12--------------|
--------------------------7--8--7---|
----0-------------------------------|
--------------------11----9---------|
------------------------------------|
------------------------------------|


----7----7----10-------------------|
--------------------7----7--8--7---|
----0------------------------------|
-------------------------9---------|
-----------------------------------|
--------------------0--------------|


----7----7----10----12---------14--12--10---|
---------------------------10---------------|
----0---------------------------------------|
--------------------11---------12-----------|
--------------------------------------------|
--------------------------------------------|


----12------------10--9-------------0---|
-----------10--8-----------7-----7------|
------------------------------9---------|
----11---------9------------------------|
------------------------------0---------|
----------------------------------------|


----7--0---------------------0------------|
-------------0--10--8-----7-----7--8--7---|
----------7-------------------------------|
-----------------------7--------9---------|
------------------------------------------|
------------------------------------------|


----7----7----10-------------------|
--------------------7----7--8--7---|
----0------------------------------|
-------------------------9---------|
-----------------------------------|
--------------------0--------------|


----7----7----10----12--------------|
--------------------------7--8--7---|
----0-------------------------------|
--------------------11----9---------|
------------------------------------|
------------------------------------|


----7----7----10-------------------|
--------------------7----7--8--7---|
----0------------------------------|
-------------------------9---------|
-----------------------------------|
--------------------0--------------|


----7----7----10----12---------14--12--10---|
---------------------------10---------------|
----0---------------------------------------|
--------------------11---------12-----------|
--------------------------------------------|
--------------------------------------------|


----12------------10--9-------------0---|
-----------10--8-----------7-----7------|
------------------------------9---------|
----11---------9------------------------|
------------------------------0---------|
----------------------------------------|


----7--0---------------------0------------|
-------------0--10--8-----7-----------0---|
----------7------------------------2------|
--------------------------------2---------|
------------------------------------------|
------------------------------------------|


-------------------------------0-----0---|
----------0--------0--------0--0--7------|
-------2--------2--------2---------------|
----2--------2--------2------------------|
-----------------------------------------|
-----------------------------------------|


----7--0---------------------0--------|
-------------0--10--8-----7-----------|
----------7---------------------------|
--------------------------------------|
--------------------------------------|
--------------------------------------|


-------------------------------0---------|
----3-----0--3-----0--3-----0--------0---|
----------------------------------0------|
-------4--------4--------4---------------|
----2------------------------------------|
-------------------------------0---------|


-------------------------------0---------|
----3-----0--3-----0--3-----0--------0---|
----------------------------------0------|
-------4--------4--------4---------------|
----2--------------------------4---------|
-----------------------------------------|


----2--------2--------2--------0---------|
----------3--------3--------3--------0---|
-------2--------2--------2--------0------|
----0------------------------------------|
-----------------------------------------|
-------------------------------0---------|


----2--------2--------2--------0---------|
----------3--------3--------3--------0---|
-------2--------2--------2--------0------|
----0------------------------------------|
-------------------------------4---------|
-----------------------------------------|


-----------------------------------------|
----3-----0--2--------0--------3---------|
-------------------2--------0--------2---|
-------4--------2--------0--------0------|
----2--------0---------------------------|
----------------------3--------2---------|


-----------------------------------------|
----0--------0--------0--------0---------|
----------0--------2--------2--------2---|
-------2--------2--------2--------2------|
----0------------------------------------|
-----------------------------------------|


-------------------------------0---------|
----3-----0--3-----0--3-----0--------0---|
----------------------------------0------|
-------4--------4--------4---------------|
----2------------------------------------|
-------------------------------0---------|


-------------------------------0---------|
----3-----0--3-----0--3-----0--------0---|
----------------------------------0------|
-------4--------4--------4---------------|
----2--------------------------4---------|
-----------------------------------------|


----2--------2--------2--------0---------|
----------3--------3--------3--------0---|
-------2--------2--------2--------0------|
----0------------------------------------|
-----------------------------------------|
-------------------------------0---------|


----2--------2--------2--------0---------|
----------3--------3--------3--------0---|
-------2--------2--------2--------0------|
----0------------------------------------|
-------------------------------4---------|
-----------------------------------------|


-----------------------------------------|
----3-----0--2--------0--------3---------|
-------------------2--------0--------2---|
-------4--------2--------0--------0------|
----2--------0---------------------------|
----------------------3--------2---------|


-----------------------------------------|
----0--------0--------0--------0---------|
----------0--------2--------2--------2---|
-------2--------2--------2--------2------|
----0------------------------------------|
-----------------------------------------|


-----------------------------------------|
----0--------0--------0--------0---------|
----------0--------2--------2--------2---|
-------2--------2--------2--------2------|
----0------------------------------------|
-----------------------------------------|


-----------------------------------------|
----0--------0--------0--------0---------|
----------0--------2--------2--------2---|
-------2--------2--------2--------2------|
----0------------------------------------|
-----------------------------------------|


----3---------------------|
----3---------------------|
----5---------------------|
----5---------------------|
----3---------------------|
----3---------------------|


----3---------------------|
----3---------------------|
----5---------------------|
----5---------------------|
----3---------------------|
----3---------------------|


----3---------------------|
----3---------------------|
----5---------------------|
----5---------------------|
----3---------------------|
----3---------------------|


----3---------------------|
----3---------------------|
----5---------------------|
----5---------------------|
----3---------------------|
----3---------------------|


----5--5--5--5--5-----3--3--3--2--2----|
----5--5--5--5--5-----3--3--3--3--3----|
----5--5--5--5--5-----4--4--4--4--4----|
----7--7--7--7--7----------------------|
-------------------------------0-------|
----0-----------------0----------------|


----5--5--5--5--5-----3--3--3--2--2----|
----5--5--5--5--5-----3--3--3--3--3----|
----5--5--5--5--5-----4--4--4--4--4----|
----7--7--7--7--7----------------------|
-------------------------------0-------|
----0-----------------0----------------|


----5--5--5--5--5-----3--3--3--2--2----|
----5--5--5--5--5-----3--3--3--3--3----|
----5--5--5--5--5-----4--4--4--4--4----|
----7--7--7--7--7----------------------|
-------------------------------0-------|
----0-----------------0----------------|


----5--5--5--5--5-----3--3--3--2--2----|
----5--5--5--5--5-----3--3--3--3--3----|
----5--5--5--5--5-----4--4--4--4--4----|
----7--7--7--7--7----------------------|
-------------------------------0-------|
----0--0--------------0----------------|


----5--5--5--5--5-----3--3--3--2--2----|
----5--5--5--5--5-----3--3--3--3--3----|
----5--5--5--5--5-----4--4--4--4--4----|
----7--7--7--7--7----------------------|
-------------------------------0-------|
----0--0--0--0--0-----0----------------|


----5--5--5--5--5-----3--3--3--2--2----|
----5--5--5--5--5-----3--3--3--3--3----|
----5--5--5--5--5-----4--4--4--4--4----|
----7--7--7--7--7----------------------|
-------------------------------0-------|
----0-----------------0----------------|


----5--5--5--5--5-----3--3--3--2--2----|
----5--5--5--5--5-----3--3--3--3--3----|
----5--5--5--5--5-----4--4--4--4--4----|
----7--7--7--7--7----------------------|
-------------------------------0-------|
----0-----------------0----------------|


----5--5--5--5--5-----3--3--3--2--2----|
----5--5--5--5--5-----3--3--3--3--3----|
----5--5--5--5--5-----4--4--4--4--4----|
----7--7--7--7--7----------------------|
-------------------------------0-------|
----------------------0----------------|


----5--5--5--5--5-----3--3--3--2--2----|
----5--5--5--5--5-----3--3--3--3--3----|
----5--5--5--5--5-----4--4--4--4--4----|
----7--7--7--7--7----------------------|
-------------------------------0-------|
----0-----------------0----------------|


----5--5--5--5--5-----3--3--3--2--2----|
----5--5--5--5--5-----3--3--3--3--3----|
----5--5--5--5--5-----4--4--4--4--4----|
----7--7--7--7--7----------------------|
-------------------------------0-------|
----0-----------------0----------------|


----0--0--0--0--0-----3--3--3--2--2----|
----1--1--1--1--1-----3--3--3--3--3----|
----2--2--2--2--2-----4--4--4--4--4----|
---------------------------------------|
---------------------------------------|
---------------------------------------|


----0--0--0--0--0-----3--3--3--2--2----|
----1--1--1--1--1-----3--3--3--3--3----|
----2--2--2--2--2-----4--4--4--4--4----|
---------------------------------------|
---------------------------------------|
---------------------------------------|


-----------------------------------------|
-------------0-----------------0---------|
----------2-----2-----------2-----2------|
-------3-----------3-----3-----------3---|
-----------------------------------------|
----1-----------------1------------------|


-----------------------------------------|
-------------0-----------------0---------|
----------2-----2-----------2-----2------|
-------3-----------3-----3-----------3---|
-----------------------------------------|
----1-----------------1------------------|


-----------------------------------------|
-------------0-----------------0---------|
----------2-----2-----------2-----2------|
-------3-----------3-----3-----------3---|
-----------------------------------------|
----1-----------------1------------------|


-----------------------------------------|
-------------0-----------------0---------|
----------2-----2-----------2-----2------|
-------3-----------3-----3-----------3---|
-----------------------------------------|
----1-----------------1------------------|


----0--0--0--0--0-----3--3--3--2--2----|
----1--1--1--1--1-----3--3--3--3--3----|
----2--2--2--2--2-----4--4--4--4--4----|
---------------------------------------|
---------------------------------------|
---------------------------------------|


----0--0--0--0--0-----3--3--3--2--2----|
----1--1--1--1--1-----3--3--3--3--3----|
----2--2--2--2--2-----4--4--4--4--4----|
---------------------------------------|
---------------------------------------|
---------------------------------------|


----0--0--0--0--0-----3--3--3--2--2----|
----1--1--1--1--1-----3--3--3--3--3----|
----2--2--2--2--2-----4--4--4--4--4----|
---------------------------------------|
---------------------------------------|
---------------------------------------|


----0--0--0--0--0-----3--3--3--2--2----|
----1--1--1--1--1-----3--3--3--3--3----|
----2--2--2--2--2-----4--4--4--4--4----|
---------------------------------------|
---------------------------------------|
---------------------------------------|


----0--0--0--0--0-----3--3--3--2--2----|
----1--1--1--1--1-----3--3--3--3--3----|
----2--2--2--2--2-----4--4--4--4--4----|
---------------------------------------|
---------------------------------------|
---------------------------------------|


----0--0--0--0--0-----3--3--3--2--2----|
----1--1--1--1--1-----3--3--3--3--3----|
----2--2--2--2--2-----4--4--4--4--4----|
---------------------------------------|
---------------------------------------|
---------------------------------------|


----0--0--0--0--0-----3--3--3--2--2----|
----1--1--1--1--1-----3--3--3--3--3----|
----2--2--2--2--2-----4--4--4--4--4----|
---------------------------------------|
---------------------------------------|
---------------------------------------|


----0--0--0--0--0-----3--3--3--2--2----|
----1--1--1--1--1-----3--3--3--3--3----|
----2--2--2--2--2-----4--4--4--4--4----|
---------------------------------------|
---------------------------------------|
---------------------------------------|


-----------------------------------------|
-------------0-----------------0---------|
----------2-----2-----------2-----2------|
-------3-----------3-----3-----------3---|
-----------------------------------------|
----1-----------------1------------------|


-----------------------------------------|
-------------0-----------------0---------|
----------2-----2-----------2-----2------|
-------3-----------3-----3-----------3---|
-----------------------------------------|
----1-----------------1------------------|


-----------------------------------------|
-------------0-----------------0---------|
----------2-----2-----------2-----2------|
-------3-----------3-----3-----------3---|
-----------------------------------------|
----1-----------------1------------------|


-----------------------------------------|
-------------0-----------------0---------|
----------2-----2-----------2-----2------|
-------3-----------3-----3-----------3---|
-----------------------------------------|
----1-----------------1------------------|


-----------------------------------------|
-------------0-----------------0---------|
----------2-----2-----------2-----2------|
-------3-----------3-----3-----------3---|
-----------------------------------------|
----1-----------------1------------------|


-----------------------------------------|
-------------0-----------------0---------|
----------2-----2-----------2-----2------|
-------3-----------3-----3-----------3---|
-----------------------------------------|
----1-----------------1------------------|


-----------------------------------------|
-------------0-----------------0---------|
----------2-----2-----------2-----2------|
-------3-----------3-----3-----------3---|
-----------------------------------------|
----1-----------------1------------------|


-----------------------------------------|
-------------0-----------------0---------|
----------2-----2-----------2-----2------|
-------3-----------3-----3-----------3---|
-----------------------------------------|
----1-----------------1------------------|


----------0--2-----0-----0-----2-----0---|
-------0--------0-----0-----0-----0------|
-----------------------------------------|
-----------------------------------------|
----0------------------------------------|
-----------------------------------------|


----------0--2-----0-----0-----2-----0---|
-------0--------0-----0-----0-----0------|
-----------------------------------------|
-----------------------------------------|
----0------------------------------------|
-----------------------------------------|


----------0--2-----0-----0-----2-----0---|
-------0--------0-----0-----0-----0------|
-----------------------------------------|
-----------------------------------------|
----0------------------------------------|
-----------------------------------------|


----------0--2-----0-----0-----2-----0---|
-------0--------0-----0-----0-----0------|
-----------------------------------------|
-----------------------------------------|
----0------------------------------------|
-----------------------------------------|


----------0--2-----0-----0-----2-----0---|
-------0--------0-----0-----0-----0------|
-----------------------------------------|
-----------------------------------------|
----0------------------------------------|
-----------------------------------------|


----------0--2-----0-----0-----2-----0---|
-------0--------0-----0-----0-----0------|
-----------------------------------------|
-----------------------------------------|
----0------------------------------------|
-----------------------------------------|


----------0--2-----0-----0-----2-----0---|
-------0--------0-----0-----0-----0------|
-----------------------------------------|
-----------------------------------------|
----0------------------------------------|
-----------------------------------------|


----------0--2-----0-----0-----2-----0---|
-------0--------0-----0-----0-----0------|
-----------------------------------------|
-----------------------------------------|
----0------------------------------------|
-----------------------------------------|


----------0--2-----0-----0-----2-----0---|
-------0--------0-----0-----0-----0------|
-----------------------------------------|
-----------------------------------------|
----0------------------------------------|
-----------------------------------------|


----------0--2-----0-----0-----2-----0---|
-------0--------0-----0-----0-----0------|
-----------------------------------------|
-----------------------------------------|
----0------------------------------------|
-----------------------------------------|


----------0--2-----0-----0-----2-----0---|
-------0--------0-----0-----0-----0------|
-----------------------------------------|
-----------------------------------------|
----0------------------------------------|
-----------------------------------------|


----------0--2-----0-----0-----2-----0---|
-------0--------0-----0-----0-----0------|
-----------------------------------------|
-----------------------------------------|
----0------------------------------------|
-----------------------------------------|


----------0--2-----0-----0-----2-----0---|
-------0--------0-----0-----0-----0------|
-----------------------------------------|
-----------------------------------------|
----0------------------------------------|
-----------------------------------------|


----------0--2-----0-----0-----2-----0---|
-------0--------0-----0-----0-----0------|
-----------------------------------------|
-----------------------------------------|
----0------------------------------------|
-----------------------------------------|


----------0--2-----0-----0-----2-----0---|
-------0--------0-----0-----0-----0------|
-----------------------------------------|
-----------------------------------------|
----2------------------------------------|
-----------------------------------------|


----------0--2-----0-----0-----2-----0---|
-------0--------0-----0-----0-----0------|
-----------------------------------------|
-----------------------------------------|
----2------------------------------------|
-----------------------------------------|


----------0--2-----0-----0-----2-----0---|
-------0--------0-----0-----0-----0------|
-----------------------------------------|
-----------------------------------------|
----2------------------------------------|
-----------------------------------------|


----------0--2-----0-----0-----2-----0---|
-------0--------0-----0-----0-----0------|
-----------------------------------------|
-----------------------------------------|
----2------------------------------------|
-----------------------------------------|


----------0--2-----0-----0-----2-----0---|
-------0--------0-----0-----0-----0------|
-----------------------------------------|
-----------------------------------------|
----2------------------------------------|
-----------------------------------------|


----------0--2-----0-----0-----2-----0---|
-------0--------0-----0-----0-----0------|
-----------------------------------------|
-----------------------------------------|
----2------------------------------------|
-----------------------------------------|


----------0--2-----0-----0-----2-----0---|
-------0--------0-----0-----0-----0------|
-----------------------------------------|
-----------------------------------------|
----2------------------------------------|
-----------------------------------------|


----------0--2-----0-----0-----2-----0---|
-------0--------0-----0-----0-----0------|
-----------------------------------------|
-----------------------------------------|
----2------------------------------------|
-----------------------------------------|


----------0--2-----0-----0-----2-----0---|
-------0--------0-----0-----0-----0------|
-----------------------------------------|
-----------------------------------------|
----2------------------------------------|
-----------------------------------------|


-------------------------------0---------|
----3-----0--3-----0--3-----0--------0---|
----------------------------------0------|
-------4--------4--------4---------------|
----2------------------------------------|
-------------------------------0---------|


-------------------------------0---------|
----3-----0--3-----0--3-----0--------0---|
----------------------------------0------|
-------4--------4--------4---------------|
----2--------------------------4---------|
-----------------------------------------|


----2--------2--------2--------0---------|
----------3--------3--------3--------0---|
-------2--------2--------2--------0------|
----0------------------------------------|
-----------------------------------------|
-------------------------------0---------|


----2--------2--------2--------0---------|
----------3--------3--------3--------0---|
-------2--------2--------2--------0------|
----0------------------------------------|
-------------------------------4---------|
-----------------------------------------|


-----------------------------------------|
----3-----0--2--------0--------3---------|
-------------------2--------0--------2---|
-------4--------2--------0--------0------|
----2--------0---------------------------|
----------------------3--------2---------|


-----------------------------------------|
----0--------0--------0--------0---------|
----------2--------2--------2--------2---|
-------3--------3--------3--------3------|
----0------------------------------------|
-----------------------------------------|


-----------------------------------------|
----0--------0--------0--------0---------|
----------2--------2--------2--------2---|
-------3--------3--------3--------3------|
----0------------------------------------|
-----------------------------------------|


-----------------------------------------|
----0--------0--------0--------0---------|
----------2--------2--------2--------2---|
-------3--------3--------3--------3------|
-----------------------------------------|
----2------------------------------------|


-----------------------------------------|
----0--------0--------0--------0---------|
----------2--------2--------2--------2---|
-------3--------3--------3--------3------|
-----------------------------------------|
----2------------------------------------|


----0--0--0--0--0-----3--3--3--2--2----|
----1--1--1--1--1-----3--3--3--3--3----|
----2--2--2--2--2-----4--4--4--4--4----|
---------------------------------------|
---------------------------------------|
---------------------------------------|


----0--0--0--0--0-----3--3--3--2--2----|
----1--1--1--1--1-----3--3--3--3--3----|
----2--2--2--2--2-----4--4--4--4--4----|
---------------------------------------|
---------------------------------------|
---------------------------------------|


----0--0--0--0--0-----3--3--3--2--2----|
----1--1--1--1--1-----3--3--3--3--3----|
----2--2--2--2--2-----4--4--4--4--4----|
---------------------------------------|
---------------------------------------|
---------------------------------------|


----0--0--0--0--0-----3--3--3--2--2----|
----1--1--1--1--1-----3--3--3--3--3----|
----2--2--2--2--2-----4--4--4--4--4----|
---------------------------------------|
---------------------------------------|
---------------------------------------|


----0--0--0--0--0-----3--3--3--2--2----|
----1--1--1--1--1-----3--3--3--3--3----|
----2--2--2--2--2-----4--4--4--4--4----|
---------------------------------------|
---------------------------------------|
---------------------------------------|


----0--0--0--0--0-----3--3--3--2--2----|
----1--1--1--1--1-----3--3--3--3--3----|
----2--2--2--2--2-----4--4--4--4--4----|
---------------------------------------|
---------------------------------------|
---------------------------------------|


----0--0--0--0--0-----3--3--3--2--2----|
----1--1--1--1--1-----3--3--3--3--3----|
----2--2--2--2--2-----4--4--4--4--4----|
---------------------------------------|
---------------------------------------|
---------------------------------------|


----0--0--0--0--0-----3--3--3--2--2----|
----1--1--1--1--1-----3--3--3--3--3----|
----2--2--2--2--2-----4--4--4--4--4----|
---------------------------------------|
---------------------------------------|
---------------------------------------|


-----------------------------------------|
-------------0-----------------0---------|
----------2-----2-----------2-----2------|
-------3-----------3-----3-----------3---|
-----------------------------------------|
----1-----------------1------------------|


-----------------------------------------|
-------------0-----------------0---------|
----------2-----2-----------2-----2------|
-------3-----------3-----3-----------3---|
-----------------------------------------|
----1-----------------1------------------|


-----------------------------------------|
-------------0-----------------0---------|
----------2-----2-----------2-----2------|
-------3-----------3-----3-----------3---|
-----------------------------------------|
----1-----------------1------------------|


-----------------------------------------|
-------------0-----------------0---------|
----------2-----2-----------2-----2------|
-------3-----------3-----3-----------3---|
-----------------------------------------|
----1-----------------1------------------|


----0--0--0--0--0-----3--3--3--2--2----|
----1--1--1--1--1-----3--3--3--3--3----|
----2--2--2--2--2-----4--4--4--4--4----|
---------------------------------------|
---------------------------------------|
---------------------------------------|


----0--0--0--0--0-----3--3--3--2--2----|
----1--1--1--1--1-----3--3--3--3--3----|
----2--2--2--2--2-----4--4--4--4--4----|
---------------------------------------|
---------------------------------------|
---------------------------------------|


----0--0--0--0--0-----3--3--3--2--2----|
----1--1--1--1--1-----3--3--3--3--3----|
----2--2--2--2--2-----4--4--4--4--4----|
---------------------------------------|
---------------------------------------|
---------------------------------------|


----0--0--0--0--0-----3--3--3--2--2----|
----1--1--1--1--1-----3--3--3--3--3----|
----2--2--2--2--2-----4--4--4--4--4----|
---------------------------------------|
---------------------------------------|
---------------------------------------|


----0--0--0--0--0-----3--3--3--2--2----|
----1--1--1--1--1-----3--3--3--3--3----|
----2--2--2--2--2-----4--4--4--4--4----|
---------------------------------------|
---------------------------------------|
---------------------------------------|


----0--0--0--0--0-----3--3--3--2--2----|
----1--1--1--1--1-----3--3--3--3--3----|
----2--2--2--2--2-----4--4--4--4--4----|
---------------------------------------|
---------------------------------------|
---------------------------------------|


----0--0--0--0--0-----3--3--3--2--2----|
----1--1--1--1--1-----3--3--3--3--3----|
----2--2--2--2--2-----4--4--4--4--4----|
---------------------------------------|
---------------------------------------|
---------------------------------------|


----0--0--0--0--0-----3--3--3--2--2----|
----1--1--1--1--1-----3--3--3--3--3----|
----2--2--2--2--2-----4--4--4--4--4----|
---------------------------------------|
---------------------------------------|
---------------------------------------|


-----------------------------------------|
-------------0-----------------0---------|
----------2-----2-----------2-----2------|
-------3-----------3-----3-----------3---|
-----------------------------------------|
----1-----------------1------------------|


-----------------------------------------|
-------------0-----------------0---------|
----------2-----2-----------2-----2------|
-------3-----------3-----3-----------3---|
-----------------------------------------|
----1-----------------1------------------|


-----------------------------------------|
-------------0-----------------0---------|
----------2-----2-----------2-----2------|
-------3-----------3-----3-----------3---|
-----------------------------------------|
----1-----------------1------------------|


-----------------------------------------|
-------------0-----------------0---------|
----------2-----2-----------2-----2------|
-------3-----------3-----3-----------3---|
-----------------------------------------|
----1-----------------1------------------|


-----------------------------------------|
-------------0-----------------0---------|
----------2-----2-----------2-----2------|
-------3-----------3-----3-----------3---|
-----------------------------------------|
----1-----------------1------------------|


-----------------------------------------|
-------------0-----------------0---------|
----------2-----2-----------2-----2------|
-------3-----------3-----3-----------3---|
-----------------------------------------|
----1-----------------1------------------|


-----------------------------------------|
-------------0-----------------0---------|
----------2-----2-----------2-----2------|
-------3-----------3-----3-----------3---|
-----------------------------------------|
----1-----------------1------------------|


-----------------------------------------|
-------------0-----------------0---------|
----------2-----2-----------2-----2------|
-------3-----------3-----3-----------3---|
-----------------------------------------|
----1-----------------1------------------|


-----------------------------------------|
-------------0-----------------0---------|
----------2--------2--------2--------2---|
-------2--------2--------2--------2------|
----0-----------------0------------------|
-----------------------------------------|


-----------------------------------------|
-------------0-----------------0---------|
----------2--------2--------2--------2---|
-------2--------2--------2--------2------|
----0-----------------0------------------|
-----------------------------------------|


-----------------------------------------|
-------------0-----------------0---------|
----------2--------2--------2--------2---|
-------2--------2--------2--------2------|
----0-----------------0------------------|
-----------------------------------------|


-----------------------------------------|
-------------0-----------------0---------|
----------2--------2--------2--------2---|
-------2--------2--------2--------2------|
----0-----------------0------------------|
-----------------------------------------|


---------------------------0--0--0---|
-------------0-------------0--0--0---|
----------2--------2-------2--2--2---|
-------2--------2----------2--2--2---|
----0----------------------0--0--0---|
-------------------------------------|


Es practico acompañarse de el tema original,
pues Hay que tener en cuenta la métrica y el
valor de los tiempos que no sé como expresar
en esta tablatura.

Espero que les guste

Marcel Sarmiento
Bogota / Colombia
Добавлено: 06.04.2016
Другие материалы по этой песне:
  • Аккорды и текст

Страница создана 06.04.2016
http://primanota.ru/inti-illimani-2/la-caza-del-nandu-chords.htm
Привет, Гость.
Предлагаем пройти революционный курс по гитаре.
Подарок от PrimaNota.Ru, забирай!