PrimaNota.ru - самый крупный в мире бесплатный архив песенных текстов, аккордов, табулатур и нот


Inti-Illimani - El Surco - таба, видео

Регистрация Запомнить меня
Войти через:  Facebook Google Twitter Vk Yandex Mail.ru

Inti-Illimani - El Surco - таба, видео

Печатать
Просмотров: 45
E          A       B4                E           A
E||-----------------|---------2-------|-----0-------------|
B||-----------------|----4---------4--|-----------0-------|
G||-----------------|----4------------|-------------------|
D||-----------------|-----------------|-------------------|
A||------------0----|----2------------|--------------0----|
E||--0----4---------|-----------------|--0-----4----------|

   B4               E         A         B4
---------2----4--|-----------------|----------2-------|
----4---------5--|-----------------|----4----------4--|
-----------------|-----------------|----4-------------|
-----------------|-----------------|------------------|
----2------------|------------0----|----2-------------|
-----------------|--0----4---------|------------------|

   E       A           B4
-----0-------------|---------2----0--| (sigue igual)
-----------0-------|----4---------0--|
-------------------|-----------------|
-------------------|-----------------|
--------------0----|----2------------|
--0-----4----------|-----------------|


E             A            B4        E A B4... (igual que intro)
Dentro de un surco abierto vi germinar
un lucero de infinita soledad
y con una canasta debí regar
con agua de un arroyo de oscuridad.

En una hora triste quise cantar
y dentro de mi canto quise gritar
y dentro de mi grito quise llorar,
E         A        B         E - A - B - C#m
pero tan sólo canto para callar.
                    Ebm7  Fm7     C#m* - F#m - C#m
A malhaya la siembra se echó a perder
                   F#m          C#m  - Ebm7 - Fm7 - C#m*
el agua del arroyo se echó a correr
                   B4 E - A - B4 - C#m
al lucero le gusta la libertad
                  B4          B4/A B4/G# B4 - E
y al agua del arroyo la claridad.
           A      B4              E   A  B4 E
No dio fruto el lucero se fue a alumbrar
                 A       B4       E  A B4
y el agua del arroyo le fue a cuidar.

A malhaya la hora en que fui a cantar,
a malhaya la hora en que fui a gritar,
si gritando se llora para callar
y mi vaso sediento no llega al mar.

A malhaya la hora en que fui a cantar,
a malhaya la hora en que fui a gritar.


Acordes Usados (de cuerda delgada a más gruesa)

B4    : 0|4|4|4|2|-
C#m*  : 9|9|9|11|11|9
F#m   : 5|7|6|4|-|-
Ebm7  : 6|7|6|8|6|-
Fm7   : 8|9|8|10|8|-
Добавлено: 06.04.2016
Другие материалы по этой песне:
  • Аккорды и текст

Страница создана 06.04.2016
http://primanota.ru/inti-illimani-2/el-surco-chords.htm
Привет, Гость.
Предлагаем пройти революционный курс по гитаре.
Подарок от PrimaNota.Ru, забирай!