PrimaNota.ru - самый крупный в мире бесплатный архив песенных текстов, аккордов, табулатур и нот


Inti-Illimani - El Mercado De Testaccio - таба, видео

Регистрация Запомнить меня
Войти через:  Facebook Google Twitter Vk Yandex Mail.ru

Inti-Illimani - El Mercado De Testaccio - таба, видео

Печатать
Просмотров: 49
Para guitarra
                                                                 Horacio Salinas

           G
E||------------------|---------------------|
B||------------------|------------0--0-----|
G||------------------|------------------2--|
D||------------------|---------------------|
A||------------------|---------------------|
E||------------------|---------------------|


                                                 D
--------------------------|---------------------------|-----------------------|
--0---0----------0--0-----|--0---0----0-1-3--3--3--1--|----3-------3--1----3--|
----2------2--0--------2--|----2----------------------|-------2---------------|
--------------------------|---------------------------|-----------------------|
--------------------------|---------------------------|-----------------------|
--------------------------|---------------------------|-----------------------|


                  G                                                  D
------------------------|--------------------------|---------------------------|
-------3--1----0--0-----|--0---0----------0--0-----|--0---0----0-1-3--3--3--1--|
--2------------------2--|----2------2--0--------2--|----2----------------------|
------------------------|--------------------------|---------------------------|
------------------------|--------------------------|---------------------------|
------------------------|--------------------------|---------------------------|


                                          Em
---------------0--------|-----------------0--0-----|--0---0----------0----3--|
----3-------3-----3--1--|--0--1--0--------------4--|----4------1--0----------|
-------2----------------|-----------2--0-----------|-------------------------|
------------------------|--------------------------|-------------------------|
------------------------|--------------------------|-------------------------|
------------------------|--------------------------|-------------------------|


                  B7F#                                           Em
--2--0-----0------------|------------------------|-----------------0--0-----|
--------4-----3----1----|--0----1--0-------0--1--|--0-----0--------------4--|
------------------------|---------------3--------|-----3-----0--------------|
------------------------|------------------------|--------------2-----------|
------------------------|------------------------|--------------------------|
------------------------|------------------------|--------------------------|


--0---0----------0----3--|--2--0------------------|-------------------------|
----4------1--0----------|--------3--1----0-------|--0--1--0-------0--1--0--|
-------------------------|---------------------3--|-------------3-----------|
-------------------------|------------------------|-------------------------|
-------------------------|------------------------|-------------------------|
-------------------------|------------------------|-------------------------|


                                 E
-----------------------|------------------------|-------------------------|
-------0--1----0-------|--0--1--0--3----1----0--|-------------------------|
----3---------------3--|------------------------|----2----1-1-2--2--2--1--|
-----------------------|------------------------|-------------------------|
-----------------------|------------------------|-------------------------|
-----------------------|------------------------|-------------------------|


                  Am                                         B7/F#
-----------------------|-------------------------|-----------------------|
---------------1----0--|-------------------------|---------------1----0--|
----2-------2----------|----2----1-1-2--2--2--1--|----2-------2----------|
-------2---------------|-------------------------|-------2---------------|
-----------------------|-------------------------|-----------------------|
-----------------------|-------------------------|-----------------------|


            Em                       A
-----------------------|--------------------------|--------------------------|
-----------------------|--------------------------|--------------------------|
----2----0----0--0-----|--0---0----------0--0-----|--0---0----------0--0-----|
--------------------4--|----4------4--2--------4--|----4------4--2--------4--|
-----------------------|--------------------------|--------------------------|
-----------------------|--------------------------|--------------------------|


           B7/F#
-----------------------|
--------------0--------|
--0---0----2-----------|
----4------------------|
-----------------------|
-----------------------|       X 2


            2ª Parte


------------------0-------|----------0---------------0-------|
--------------0-3---3-0---|--------2---2---------0-3---3-0---|
------------0-----------0-|----2-2-------2-2---0-----------0-|
----------2---------------|--2---------------2---------------|
--------------------------|----------------------------------|
--------------------------|----------------------------------|


----------0---------------0-------|----------0---------------0-------|
--------2---2---------0-3---3-0---|--------2---2---------0-3---3-0---|
----2-2-------2-2---0-----------0-|----2-2-------2-2---0-----------0-|
--2---------------2---------------|--2---------------2---------------|
----------------------------------|----------------------------------|
----------------------------------|----------------------------------|


----------0---------------0-------|----------0---------------0-------|
--------2---2---------0-3---3-0---|--------2---2---------0-3---3-0---|
----2-2-------2-2---0-----------0-|----2-2-------2-2---0-----------0-|
--2---------------2---------------|--2---------------2---------------|
----------------------------------|----------------------------------|
----------------------------------|----------------------------------|


----------0---------------0-------|----------0---------------0-------|
--------2---2---------0-3---3-0---|--------2---2---------0-3---3-0---|
----2-2-------2-2---0-----------0-|----2-2-------2-2---0-----------0-|
--2---------------2---------------|--2---------------2---------------|
----------------------------------|----------------------------------|
----------------------------------|----------------------------------|


----------0----------------|------------------|---||
--------2---2--------------|------------------|---||
----2-2-------2-2----------|------------------|---||
--2---------------2--------|------------------|---||
---------------------------|------------------|---||
---------------------------|------------------|---||
Добавлено: 06.04.2016
Другие материалы по этой песне:
  • Аккорды и текст

Страница создана 06.04.2016
http://primanota.ru/inti-illimani-2/el-mercado-de-testaccio-chords.htm
Привет, Гость.
Предлагаем пройти революционный курс по гитаре.
Подарок от PrimaNota.Ru, забирай!