PrimaNota.ru - самый крупный в мире бесплатный архив песенных текстов, аккордов, табулатур и нот


Inti-Illimani - Angelo - таба, видео

Регистрация Запомнить меня
Войти через:  Facebook Google Twitter Vk Yandex Mail.ru

Inti-Illimani - Angelo - таба, видео

Печатать
Просмотров: 55
Hola a todos
Aqui escribi la cancion Angelo para guitarra pero un poco mas abajo
estan las notas para que la sacen en flauta o en quena que es la original

A)
e. ---5-5-5-----5-6-5-------------5-5-5-----5-6-5--------
B. ---------6-8-------8-6-5-------------6-8-------8-6-5--
G. ------------------------------------------------------
D. ------------------------------------------------------
A. ------------------------------------------------------
E. ------------------------------------------------------

B)
e. ----------------5-----5------------------8-8-8-6-5----
B. ----8-8-8-5-6-8---8-6---8----8-8-8-5-6-8--------------
G. ------------------------------------------------------
D. ------------------------------------------------------
A. ------------------------------------------------------
E. ------------------------------------------------------

se repite A) Y B)

C)
e. -----5-8-5-------5-------5-8-5---5-7-9-10---
B. -6-8-------8-6-8-----6-8-------8------------
G. --------------------------------------------
D. --------------------------------------------
A. --------------------------------------------
E. --------------------------------------------

C)
e. ------5-8-5-------5------5-13-12-10-9-10-12-10-
B. --6-8-------8-6-8----6-8-------8---------------
G. -----------------------------------------------
D. -----------------------------------------------
A. -----------------------------------------------
E. -----------------------------------------------


D)
e. ------5--------8-6-5-------5-----8-6-------------------12-13-15-17-17-
B. 5-5-5---8--5-5-------8-6-8---5-5-----------------13-15----------------
G. -------------------------------------12-14-15--15---------------------
D. ----------------------------------------------------------------------
A. ----------------------------------------------------------------------
E. ----------------------------------------------------------------------

E)
e. --15-15-15--17-15-14-12-14-15-14-12----15-15-15-17-15-14-12--
B. -------------------------------------------------------------
G. -------------------------------------------------------------
D. -------------------------------------------------------------
A. -------------------------------------------------------------
E. -------------------------------------------------------------


e. --3-3-3--5-3-2-0-2-3-2-0--------3-3-3-5-3-2-0----------------
B. -------------------------------------------------------------
G. -------------------------------------------------------------
D. -------------------------------------------------------------
A. -------------------------------------------------------------
E. -------------------------------------------------------------

esta toda la parte de la flauta pero es preferible que la escuchen
algunos cambios pueden ser complicados

las notas para la flauta

A) LA LA LA FMI SOL LA LA# LA SOL FA mi(x2)

B) SOL SOL SOL MI FA SOL LA SOL FA LA SOL
SOL SOL SOL MI FA SOL DO* DO* DO* LA# LA

C) FA SOL LA DO* LA SOL FA SOL LA  FA SOL LA DO* LA SOL LA SI DO#* RE*

   FA SOL LA DO* LA SOL FA SOL LA  FA SOL LA FA* MI* RE* DO#* RE* MI* RE*

D) MI MI MI LA SOL MI MI DO* LA# LA SOL FA SOL LA

   MI MI DO LA# SOL LA LA# LA# DO* RE* MI* FA* SOL* LA* LA*

E) SOL* SOL* SOL* LA* SOL* FA#* MI* FA#* SOL* FA#* MI*
SOL* SOL* SOL* LA* SOL* FA#* MI*

   SOL SOL SOL LA SOL FA# MI FA# SOL FA# MI SOL SOL SOL LA SOL FA# MI

espero que les sirva y les guste
cualquier sugerencia, consulta o lo que sea este es mi mail
guz_gusano@

un saludo para el seba que me pidio que sacara la cancion (equis de)
chao
Добавлено: 06.04.2016
Другие материалы по этой песне:
  • Аккорды и текст

Страница создана 06.04.2016
http://primanota.ru/inti-illimani-2/angelo-chords.htm
Привет, Гость.
Предлагаем пройти революционный курс по гитаре.
Подарок от PrimaNota.Ru, забирай!