PrimaNota.ru - самый крупный в мире бесплатный архив песенных текстов, аккордов, табулатур и нот


Inti-Illimani - Alturas - таба, видео

Регистрация Запомнить меня
Войти через:  Facebook Google Twitter Vk Yandex Mail.ru

Inti-Illimani - Alturas - таба, видео

Печатать
Просмотров: 91
-------------------------------------------------------------------------------
                             ALTURAS - Inti Illimani
-------------------------------------------------------------------------------

Tabbed by: eastawat
Email: eastawat at tcd dot ie

Tuning: Standard

I'm pretty sure it's all correct, there are one or two chords I couldn't identify the 
names of unfortunately.


INTRODUCTION

    Am          E            C           E

e|--0-----0-----0------0-----0-----0-----0-----0------|
B|------1-----1------0-----0-----1-----1-----0-----0--|
G|----2-----2------1-----1-----0-----0-----1-----1----|
D|----------------------------------------------------|
A|--0-----------2------------3-----------2------------|
E|----------------------------------------------------|

    Dm          Dm/C        G7          G

e|--1-----1-----1-----1-----1-----1-----3-----3-------|
B|------3-----3-----3-----3-----3-----3-----3-----3---|
G|----2-----2-----2-----2-----0-----0-----0-----0-----|
D|--0-------------------------------------------------|
A|--------------3-----------2-----------2-------------|
E|----------------------------------------------------|

    Am7         Am          Bb          E

e|--3-----3-----0-----0-----1-----1-----0-----0-------|
B|------1-----1-----1-----1-----3-----3-----0-----0---|
G|----2-----2-----2-----2-----3-----3-----1-----1-----|
D|----------------------------------------------------|
A|--0-----------0-----------1-------------------------|
E|--------------------------------------4-------------|

    Am

e|--0-----0-----|
B|------1-----1-|
G|----2-----2---|
D|--------------|
A|--0-----------|
E|--------------|

STRUMMING SECTION

    E           Am          E           Am

e|--0-----------0-----------0-----------0----------|
B|--0-----------1-----------0-----------1----------|
G|--1-----------2-----------1-----------2----------|            x2
D|--2-----------2-----------2-----------2----------|
A|--2-----------0-----------2-----------0----------|
E|--0-----------0-----------0-----------0----------|

    Dm          Dm          G           G

e|--5-----------5-----------3-----------3----------|
B|--6-----------6-----------0-----------0----------|
G|--7-----------7-----------0-----------0----------|
D|--7-----------7-----------0-----------0----------|
A|--5-----------5-----------2-----------2----------|
E|--5-----------5-----------3-----------3----------|

    C           C           Bb          E

e|--0-----------0-----------6-----------4----------|
B|--1-----------1-----------6-----------5----------|
G|--0-----------0-----------7-----------4----------|
D|--2-----------2-----------8-----------6----------|
A|--3-----------3-----------8-----------7----------|
E|--x-----------x-----------6-----------x----------|

BRIDGE

    Am      Am       G7/A    Dm

e|--5-------8--------7-------5--------|
B|----5---5---5---5----6---6---6---6--|
G|------5-------5--------7-------7----|        x2
D|------------------------------------|
A|--0----------------0----------------|
E|------------------------------------|

    C       C

e|--0-------3--------4-------3--------|
B|----1---1---1---1----3---3---2---2--|
G|------0-------0--------4-------3----|
D|-------------------2-------2--------|
A|--3---------------------------------|
E|------------------------------------|

    Dm      Dm       C       E

e|----------5--------0-------0--------|
B|--6------------------1---1---0---0--|
G|----7---7---7---7------0-------1----|
D|------7-------7---------------------|
A|--5----------------3-------2--------|
E|------------------------------------|



e|---------------------------------|
B|---------------------------------|
G|---------------------------------|
D|--------0-2-2---2---2---0--------|
A|--0-2-3---------------2-----3-0--|
E|---------------------------------|

SECOND STRUMMING SECTION

    Am          E           Am          E

e|--0-----------0-----------0-----------0----------|
B|--1-----------0-----------1-----------0----------|
G|--2-----------1-----------2-----------1----------|
D|--2-----------2-----------2-----------2----------|
A|--0-----------2-----------0-----------2----------|
E|--0-----------0-----------0-----------0----------|

    Dm          Dm          G           G

e|--5-----------5-----------3-----------3----------|
B|--6-----------6-----------0-----------0----------|
G|--7-----------7-----------0-----------0----------|
D|--7-----------7-----------0-----------0----------|
A|--5-----------5-----------2-----------2----------|
E|--5-----------5-----------3-----------3----------|

    C           C           Bb          E

e|--0-----------0-----------6-----------4----------|
B|--1-----------1-----------6-----------5----------|
G|--0-----------0-----------7-----------4----------|
D|--2-----------2-----------8-----------6----------|
A|--3-----------3-----------8-----------7----------|
E|--x-----------x-----------6-----------x----------|

    Am          E           Bb          E

e|--5-----------0-----------6-----------4----------|
B|--5-----------0-----------6-----------5----------|
G|--5-----------1-----------7-----------4----------|
D|--7-----------2-----------8-----------6----------|
A|--7-----------2-----------8-----------7----------|
E|--5-----------0-----------6-----------x----------|

BRIDGE AGAIN

    Am      Am       G7/A    Dm

e|--5-------8--------7-------5--------|
B|----5---5---5---5----6---6---6---6--|
G|------5-------5--------7-------7----|         x2
D|------------------------------------|
A|--0----------------0----------------|
E|------------------------------------|

    C       C

e|--0-------3--------4-------3--------|
B|----1---1---1---1----3---3---2---2--|
G|------0-------0--------4-------3----|
D|-------------------2-------2--------|
A|--3---------------------------------|
E|------------------------------------|

    Dm      Dm       C       E

e|----------5--------0-------------0--|
B|--6------------------1---1-----0----|
G|----7---7---7---7------0-----1------| (slowing down;
D|------7-------7---------------------| note that the last E progression
A|--5----------------3-------2--------| differs from the first bridge)
E|------------------------------------|

OUTRO

    Am                       E

e|--0-----0-------------------------0-------|
B|------1-----1--------3------------0-------|
G|----2-----2----------2------------1-------|         x2
D|---------------------3------------2-------|
A|--0-----------2-------------------2-------|
E|---------------------------0--------------|

    Am

e|--0--||
B|--1--||
G|--2--||
D|--2--||
A|--0--||
E|--0--||
Добавлено: 06.04.2016
Другие материалы по этой песне:
  • Аккорды и текст

Страница создана 06.04.2016
http://primanota.ru/inti-illimani-2/alturas-chords.htm
Привет, Гость.
Предлагаем пройти революционный курс по гитаре.
Подарок от PrimaNota.Ru, забирай!