PrimaNota.ru - самый крупный в мире бесплатный архив песенных текстов, аккордов, табулатур и нот


Intheclear - Drown - таба, видео

Регистрация Запомнить меня
Войти через:  Facebook Google Twitter Vk Yandex Mail.ru

Intheclear - Drown - таба, видео

Печатать
Просмотров: 126
My first tab but its 100% correct because I got it from one of the band members. Good Luck

Drop C tuning

Intro-Outro-Post Chorus
D|------------------------------|
A|------------------------------|
F|------------------------------|
C|------------------------------|
G|--4-2-4-4-5-4-2-4-4-5-4-2-4-5-|
C|--4-2-4-----4-2-4-----4-2-----|

VERSE

D|------------------------------------------------------------|
A|------------------------------------------------------------|
F|------------------------------------------------------------|
C|-----6---6h7----7-------6h7--7p---------6---6h7----7----7\6-|
G|---4--------------4---4--------4-----0--------------0-------|
C|-4-----4------4-----4------------4-0-----0------0-----------|

CHORUS

D|---------------------------------------------------|
A|----------9-------9---9/10-10-10-10-10-10-10/9-9-9-|
F|----------X-------X-----X--X--X--X--X--X--X--X-X-X-|
C|--0-4-4-0-6-------6-0-6/7--7--7--7--7--7--7/-6-6-6-|
G|--0-4-4-0---0-4-0---0------------------------------|
C|--0-4-4-0---0-4-0---0------------------------------|

BRIDGE

D|------------------------------------------------------------------|-------
A|------------------------------------------------------------------|-------
F|------------------------------------------------------------------|-------
C|------------------------------------------------------------------|--222--
G|---------5-5-5-4-4-4-------7-7-2-2-------5-5-5-4-4-4-------2-2----|--222--
C|--4-4-4-------------2-2-2---------4-4-4-------------7-7-7-----2-2-|--222--

D|----------------------------------------------------------------|
A|----------------------------------------------------------------|
F|----------------------------------------------------------------|
C|----------------------------------------------------------------|
G|----------------------------------------------------------------|
C|--4-2-4-4-2-4-2-4-2-4/6--7-6-4-2-4-2-4-2-2-4-2-4-2-4/6--7-6-4-2-|

D|-----------------------|
A|-----------------------|
F|-----------------------|
C|-----------------0-2-4-|
G|-----------------0-2-4-|
C|--4-2-4-2-2-4/6--0-2-4-|
Добавлено: 30.05.2012
Другие материалы по этой песне:
  • Аккорды и текст

Страница создана 30.05.2012
http://primanota.ru/intheclear/drown-chords.htm
Привет, Гость.
Предлагаем пройти революционный курс по гитаре.
Подарок от PrimaNota.Ru, забирай!