PrimaNota.ru - самый крупный в мире бесплатный архив песенных текстов, аккордов, табулатур и нот


Interrupters - This Is The New Sound - бас-таба, видео

Регистрация Запомнить меня
Войти через:  Facebook Google Twitter Vk Yandex Mail.ru

Interrupters - This Is The New Sound - бас-таба, видео

Печатать
Просмотров: 69
Уроки эстрадного вокала в Санкт-Петербурге
Main Riff (you'll play this 90% of the time)
|---------------------|
|------4-4----5--5----|
|-2--2-----2--------5-|
|---------------------|
Variation (mostly right before the pre-chorus)
|----------------------|
|------4-4----/7--7----|
|-2--2-----2---------7-|
|----------------------|

Pre-Chorus
|-----------------------------|
|-5--5--5--5--4-4-2-2---------|
|---------------------5-5-4-4-|
|-----------------------------|

Chorus/Guitar Solo/Ending
|---------------------------------|
|-----------------2-2-2-0-4-4-2-0-|
|-2-2-2-0-2-2-2-0-----------------|
|---------------------------------|

|---------------------------------|
|-----------------2-2-0-2-4-2-0---|
|-2-2-2-0-2-2-0-2---------------4-|
|---------------------------------|

Ending
|------------------------|
|-5--5--5--5-/11--11--11-|
|------------------------|
|------------------------|


-Tab by Hardc0re (São Paulo, Brazil)
https://www.facebook.com/pedro.ferrazalvesfilho
Добавлено: 06.05.2016
Другие материалы по этой песне:
  • Аккорды и текст

Страница создана 06.05.2016
http://primanota.ru/interrupters/this-is-new-sound-chords.htm
Привет, Гость.
Предлагаем пройти революционный курс по гитаре.
Подарок от PrimaNota.Ru, забирай!