PrimaNota.ru - самый крупный в мире бесплатный архив песенных текстов, аккордов, табулатур и нот


Interrupters - Take Back The Power - таба, видео

Регистрация Запомнить меня
Войти через:  Facebook Google Twitter Vk Yandex Mail.ru

Interrupters - Take Back The Power - таба, видео

Печатать
Просмотров: 108
------------------------------------------------------------------------------
                      TAKE BACK THE POWER - The Interrupters
-------------------------------------------------------------------------------

Tabbed by:M Tickle
E-mail: mtickle@gmail.com

Tuning: Standard
YouTube: http://youtu.be/9mn8r5kV9Ik

VERSE/CHORUS (Bass and overdriven whine only):

What's your plan for tomorrow? Are you a leader or will you follow?
Are you a fighter or will you cower? It's our time to take back the power!

The rest of the band comes in:

e|---------------------------------------------------------------------------|
B|---------------------------------------------------------------------------|
G|-------------------------------------------9-------------------------------|
D|--------------9----------------------------9------------------9------------|
A|--------------9----------------------------7------------------9------------|
E|--------------7-----------------------------------------------7------------|

    What's your plan for tomorrow? Are you a leader or will you follow?


e|---------------------------------------------------------------------------|
B|---------------------------------------------------------------------------|
G|-----------9---------------------------------------------------------11----|
D|-----------9-------------------9----------------6--------------------11----|
A|-----------7-------------------9----------------6--------------------9-----|
E|-------------------------------7----------------4--------------------------|

   Are you a fighter or will you cower? It's our time to take back the power!


FIRST VERSE: (The verses have the same pattern as the chorus, but PM the chords.)

PRE-CHORUS:

e|---------------------------------------------------------------------------|
B|---------------------------------------------------------------------------|
G|---8-----/9------------------------8---------/9---------------/11----------|
D|---8-----/9----------------9-------6---------/9---------------/11----------|
A|---6-----/7----------------9-------6---------/7---------------/9-----------|
E|---------------------------7-----------------------------------------------|

    We don't need to run and hide! We won't be pushed off to the side!


CHORUS

FIRST SOLO (Same pattern as chorus and verse)

SECOND VERSE

PRE-CHORUS

CHORUS

SECOND SOLO (Listen closely for the chord changes here. It's quick):

e|--------------------------------|
B|--------------------------------|
G|----13------11---10---11--------| X3
D|----13------11---10---11--------|
A|----11------9----8----9---------|
E|--------------------------------|

(There is a transition here out of that solo progression that I can't figure out!)

PRE-CHORUS

CHORUS (PM guitar only)

CHORUS

OUTRO:

e|---------------------------------------------------------------------------|
B|---------------------------------------------------------------------------|
G|---8-----6-----8-----6-------8---6---4~------------------------------------|
D|---8-----6-----6-----4-------6---4---4~------------------------------------|
A|---6-----4-----6-----4-------6---4---2~------------------------------------|
E|---------------------------------------------------------------------------|



************************************

| /   slide up
| \   slide down
| h   hammer-on
| p   pull-off
| ~   vibrato
| +   harmonic
| x   Mute note
| b   Bend
| pb  Pre-bend
| br  Bend release
| pbr Pre-bend release
| brb Bend release bend

************************************
Добавлено: 23.12.2015
Вам также может быть интересно:
Другие материалы по этой песне:
  • Аккорды и текст

Страница создана 23.12.2015
http://primanota.ru/interrupters/take-back-power-chords.htm
Привет, Гость.
Предлагаем пройти революционный курс по гитаре.
Подарок от PrimaNota.Ru, забирай!