PrimaNota.ru - самый крупный в мире бесплатный архив песенных текстов, аккордов, табулатур и нот


Interpol - A Time To Be So Small - текст песни, таба, бас-таба, видео

Регистрация Запомнить меня
Войти через:  Facebook Google Twitter Vk Yandex Mail.ru

Interpol - A Time To Be So Small - текст песни, таба, бас-таба, видео

Печатать
Просмотров: 125
Interpol 
A Time to Be so Small

Hey, it's finally completed.
Questions/Comments- jonlynch02@yahoo.com

Guitar 1
Intro (Throughout Song Until Outro)
e-5-5-5-5-5-5-5-5-5-5-5-5-5-5-5-5-5-|
B-6-6-6-6-6-6-6-6-6-5-5-5-5-6-6-5-6-|
G-7-7-7-7-7-7-7-7-5-5-5-5-5-7-7-5-7-|
D-----------------------------------|
A-----------------------------------|
E-----------------------------------|

Guitar 2
Intro/Verse
e-----------------------------------------------------------------------|
B-----------------------------------------------------------------------|
G-2--------5-3-2--------5-3-2--------5-(5)/7\2--3-2--5-(5)/7\2--3-2--3--|
D----3--2---------3--2---------3--2-------------------------------------|
A-----------------------------------------------------------------------|
E-----------------------------------------------------------------------|

Guitar 2
Intro Part 2
e----5----5----5------6---|
B-------------------------|
G-2----2-2--2-2--2-3----3-|
D-------------------------|
A-------------------------|
E-------------------------|

Chorus
Guitar 2
e--8--8--8--8--8--8--8--8-6-6-6-6-6-6-6-6--8--8--8--8-5-5-5-5-6-6-6-6-3-3-3-3-|
B-10-10-10-10-10-10-10-10-8-8-8-8-8-8-8-8-10-10-10-10-6-6-6-6-8-8-8-8-5-5-5-5-|
G-----------------------------------------------------------------------------|
D-----------------------------------------------------------------------------|
A-----------------------------------------------------------------------------|
E-----------------------------------------------------------------------------|

e-5-5-5-5-6-6-6-6-3-3-3-3-5-6-6-6-5-5-5-5-6-6-6-6-5-5-5-5-5-5-5-5-|
B-6-6-6-6-6-6-6-6-6-6-6-6-6-6-6-6-6-6-6-6-6-6-6-6-6-6-6-6-6-6-6-6-|
G-----------------------------------------------------------------|
D-----------------------------------------------------------------|
A-----------------------------------------------------------------|
E-----------------------------------------------------------------|

Bridge
Guitar 2
e-------------------------------------|
B-------------------------------------|
G-2--3--2----3--2----3--2----5-(5)/7\-|
D---------3-------2-------------------|
A-------------------------3-----------|
E-------------------------------------|

Interlude
Guitar 2
e-----------------------------------|
B-----------------------------------|
G---------10----------------7---5---|
D-7-8-7-8----8-8-7--7-8-7-8---8---8-|
A-----------------------------------|
E-----------------------------------|

Outro
Guitar 1
e--------------------------1~~~----------------5-5-5-5~~~-|
B--------------------------3~~~----------------6-6-5-6~~~-|
G-------------2~~~---------2~~~----------------7-7-5-7~~~-|
D---------------------------------------------------------|
A---------------------------------------------------------|
E---------------------------------------------------------|
						          |
Guitar 2					          |
e-----------------5---5--------5---5----------------------|
B-----6---6---6-6---6---6--5-5---5---5-----5--------(6)---|
G-7-7---7---7--------------------------5-5---5------------|
D---------------------------------------------------------|
A---------------------------------------------------------|
E---------------------------------------------------------|

Guitar 1
e---------------------------------------------------------5-5-5-5-5~~~-|
B---------------------------------------------------------6-6-6-5-6~~~-|
G---------------------------------------------------------7-5-5-5-7~~~-|
D----------------------------------------------------------------------|
A----------------------------------------------------------------------|
E----------------------------------------------------------------------|
							               |
Guitar 2							       |
e---------------------------5-5-------------5-5------------------------|
B-----------6-6---6-6-6-6-6-----6-5-5-5-5-5-----5----------------------|
G-7-7-7-7-7-----7---------------------------------5-5-5-5--------(6)---|
D----------------------------------------------------------------------|
A----------------------------------------------------------------------|
E----------------------------------------------------------------------|

Last Time
Guitar 1	      
e-----------------5~~~-|
B-----------------6~~~-|
G-----------------7~~~-|
D----------------------|
A----------------------|
E----------------------|
		       |
Guitar 2               |
e----------------------|
B-6-6-6-6-6-6-6-6------|
G-7-7-7-7-7-7-7-5-7~~~-|
D-----------------7~~~-|
A----------------------|
E----------------------|
Добавлено: 15.08.2013
Другие материалы по этой песне:

Страница создана 12.05.2012
http://primanota.ru/interpol/a-time-to-be-so-small-chords.htm
Привет, Гость.
Предлагаем пройти революционный курс по гитаре.
Подарок от PrimaNota.Ru, забирай!