PrimaNota.ru - самый крупный в мире бесплатный архив песенных текстов, аккордов, табулатур и нот


The Internet - Under Control - бас-таба, видео

Регистрация Запомнить меня
Войти через:  Facebook Google Twitter Vk Yandex Mail.ru

The Internet - Under Control - бас-таба, видео

Печатать
Просмотров: 75
Уроки эстрадного вокала в Санкт-Петербурге
-------------------------------------------------------------------------------
                             Under Control - The Internet
-------------------------------------------------------------------------------
Tabbed by: Ian
E-mail: 

Tuning: Standard

The bass player in the band has a 5 string but I have a 4, so this is as close 
as I could get it to sound like the original song. Enjoy!

Verse:
G|---------------------------------------------------------------------------|
D|----------9-----------9--7-----------9------------9------------------------|
A|---------7--5--------7--7-7---------7---5--------7--78---------------------|
E|---5567\--------5567\------5--5567\--------5567\------75-------------------|

Chorus:
G|-------7---------9h11-------------7---------9h11---------------------------|
D|------7---------9----------------7---------9-------------------------------|
A|-----5---------7----------------5---------7--------------------------------|
E|----5---------0-------7--------5---------0---------------------------------|

Bridge:
G|---------------------------------------------------------------------------|
D|---------------------------------------------------------------------------|
A|------------------40----50---------------------40----50--------------------|
E|--------5----4------20----41--------5-----4------20----44421---------------|

| /  slide up
| \  slide down
| h  hammer-on
| p  pull-off
| ~  vibrato
| +  harmonic
| x  Mute note
===============================================================================
Добавлено: 23.04.2016
Другие материалы по этой песне:
  • Аккорды и текст

Страница создана 23.04.2016
http://primanota.ru/internet/under-control-chords.htm
Привет, Гость.
Предлагаем пройти революционный курс по гитаре.
Подарок от PrimaNota.Ru, забирай!