PrimaNota.ru - самый крупный в мире бесплатный архив песенных текстов, аккордов, табулатур и нот


The Internet - Special Affair - бас-таба, видео

Регистрация Запомнить меня
Войти через:  Facebook Google Twitter Vk Yandex Mail.ru

The Internet - Special Affair - бас-таба, видео

Печатать
Просмотров: 88
-------------------------------------------------------------------------------
                          Special Affair - The Internet
-------------------------------------------------------------------------------
Tabbed by: JMarst

Tuning: Standard

This is the bassline that is repeated throughout the whole song.

G|------------------------------------------------------------------|
D|------------------------------------------------------------------|
A|----7---------------7---8---7-------7-7-------------7---8---7-----|
E|5-------5---7---8-------------8-5-5-----5-5-7---8-8-----------8---|

G|------------------------------------------------------------------|
D|------------------------------------------------------------------|
A|----7---------------7---8---7---5---5---7---7---8---8-------------|
E|5-------5---7---8-------------8-------------------------4---4-----|

===============================================================================
Добавлено: 23.04.2016
Вам также может быть интересно:
Другие материалы по этой песне:
  • Аккорды и текст

Страница создана 23.04.2016
http://primanota.ru/internet/special-affair-chords.htm
Привет, Гость.
Предлагаем пройти революционный курс по гитаре.
Подарок от PrimaNota.Ru, забирай!