PrimaNota.ru - самый крупный в мире бесплатный архив песенных текстов, аккордов, табулатур и нот


International Noise Conspiracy - Lets Make History - бас-таба, видео

Регистрация Запомнить меня
Войти через:  Facebook Google Twitter Vk Yandex Mail.ru

International Noise Conspiracy - Lets Make History - бас-таба, видео

Печатать
Просмотров: 136
Уроки эстрадного вокала в Санкт-Петербурге
Авторы музыки: The (International) Noise Conspiracy
Авторы текста: The (International) Noise Conspiracy
-------------------------------------------------------------------------------
			     Let's make history - The (International) Noise Conspiracy
-------------------------------------------------------------------------------

Tabbed By : bud_spencer

Tuning: E A D G

Intro
G|-------5-----------5---------5-------------------|
D|-7-5-7---7-5---5-7-----7-5-7------------2-3-0----|
A|-------------7------------------0-0-3-5----------|
E|-------------------------------------------------|

G|-------5----------------------5------------------|
D|-7-5-7---7--7-5---5-7---7-5-7-----------2-3------|
A|----------------7-----5---------0-0-3-5-----5----|
E|-------------------------------------------------|

Verse
G|-------5-------------------|
D|-7-5-7-------------5---5-7-|
A|-------------3-5-7---7-----|
E|---------5-5---------------| (8x)

pre-chorus
G|-------5--------------------------------------------------------------|
D|-7-5-7-----------------5----------3--------------3--------------------|
A|-------------3-5-7-5-7---7--5-3-5------------3-5---5-3----------------|
E|---------5-5-------------------------1-1-3-5--------------------------| (2x)

Chorus
G|----------------------------------------------------------------------|
D|-7-7-7-7-7-5---5--7-7-7-7-7-5----------5-----5------------------------|
A|-------------7----------------7-5--3-3---3-3---3-3-5-5-5-5------------|
E|-----------------------------------------------------------3-3-3-3----| (2x)

Post-chorus
G|-------------------------------------------------------------------|
D|-------------------------------------------------------------------|
A|---------------------------------3-3-3-3-3-3-3-3---5-5-5-5---------|
E|-3-3-3-3-3-3-3-3-3-3-3-3-3-3-3-3---------------------------3-3-3-3-|
                                                        normal ending    alt. ending
G|---------------------------------------------------------------------|---------------|
D|-------------------------------------------------------------5-5-5-5-|---------------|
A|------------------------------------3-3-3-3-3-3-3-3--5-5-5-5---------|-5-5-5-5--5-7--|
E|---3-3-3-3-3-3-3-3-3-3-3-3-3-3-3-3-----------------------------------|---------------|

Bridge
G|----------------------------------------------------------------------|
D|-7-7-7-7-7-5---5--7-7-7-7---------------------------------------------|
A|-------------7------------2-2-2-2--3-3-3-3-3-3-3-3--5-5-5-5-----------|
E|------------------------------------------------------------3-3-3-3---| (3x)

G|----------------------------------------------------------------------|
D|--7-7-7-7-7-7-7-7-7-7-7-7-----------------------------------5-5-5-5---|
A|--------------------------2-2-2-2--3-3-3-3-3-3-3-3--5-5-5-5-----------|
E|----------------------------------------------------------------------|

G|-------5-------------------|-------5-------------------|
D|-7-5-7-------------5---5-7-|-7-5-7-------------5-------|
A|-------------3-5-7---7-----|-------------3-5-7---7-5-3-|
E|---------5-5---------------|---------5-5---------------|

G|----------------------------|
D|-------3--------------3-----|
A|-5-3-5------------5-3---5-3-|
E|---------1-1--3-5-----------| (2x)

G|-------5-------------------|-------5-------------------|
D|-7-5-7-------------5---5-7-|-7-5-7-------------5-------|
A|-------------3-5-7---7-----|-------------3-5-7---7-5-3-|
E|---------5-5---------------|---------5-5---------------|

G|-------------------------------------------|
D|-------3--------------3------3--3--3-3-3-5-|
A|-5-3-5------------5-3---5-3----------------|
E|---------1-1--3-5--------------------------| 

Outro 
G|----------------------------------------------------------------------|
D|-7-7-7-7-7-5---5--7-7-7-7---------------------------------------------|
A|-------------7------------2-2-2-2--3-3-3-3-3-3-3-3--5-5-5-5-----------|
E|------------------------------------------------------------3-3-3-3---| 4x - 
last time, end on E5

Order:
Intro
Verse
Pre-Chorus
Chorus
Post-Chorus (normal ending)
Verse
Pre-chorus 
Chorus
Post Chorus (alt ending)
Bridge
Chorus
Post Chorus (normal ending)
Outro

| /  slide up
| \  slide down
| h  hammer-on
| p  pull-off
| ~  hold note
| +  harmonic
| x  Mute note
===============================================================================
Добавлено: 03.05.2012
Другие материалы по этой песне:
  • Аккорды и текст

Страница создана 03.05.2012
http://primanota.ru/international-noise-conspiracy/lets-make-history-chords.htm
Привет, Гость.
Предлагаем пройти революционный курс по гитаре.
Подарок от PrimaNota.Ru, забирай!