PrimaNota.ru - самый крупный в мире бесплатный архив песенных текстов, аккордов, табулатур и нот


International Noise Conspiracy - I Wanna Know About U - бас-таба, видео

Регистрация Запомнить меня
Войти через:  Facebook Google Twitter Vk Yandex Mail.ru

International Noise Conspiracy - I Wanna Know About U - бас-таба, видео

Печатать
Просмотров: 103
The (International) Noise Conspiracy
I Wanna Know About U
Survival Sickness
Standard Tuning

Comments, suggestions, and ratings are all welcome.  Thanks and enjoy! :)

Part A - 0:03 - (x3)
G|---------------------0---|
D|-----------------0-2-----|
A|--000-----0-0--3---------|
E|------333----------------|

Part A Variation - 0:10 - (x1)
G|------------|
D|------------|
A|--000-------|
E|------333---|

Part B - 0:11 - (x1)
G|------------|
D|------------|
A|------------|
E|--33-3334---|

Part A - 0:14 - (x4)

Part C - 0:24 - (x1)
G|---------------------------|
D|---------------------------|
A|--00-33-55-7--00-33-22-1---|
E|---------------------------|

Part A - 0:27 - (x4)

Part C - 0:36 - (x1)

Part D - 0:39 - (x2)
G|-----------------|
D|-----------------|
A|-----------------|
E|--553-33333-44---|

Part D Variation - 0:44 - (x1)
G|----------|
D|----------|
A|----------|
E|--553-3---|

Part E - 0:45 - (x1)
G|-----------|
D|-----------|
A|-----------|
E|--3----4---|

Part A - 0:47 - (x4)

Part C - 0:58 - (x1)

Part A - 1:00 - (x4)

Part C - 1:10 - (x1)

Part D - 1:13 - (x3)

Part F - 1:21 - (x1)
G|---------------|
D|---------------|
A|--0-0-0-00-----|
E|-----------3---|

Part G - 1:23 - (x3) 
G|--------------|
D|--------------|
A|--0-0-0-0-----|
E|----------3---|

Part F - 1:30 - (x1)

Part G - 1:32 - (x3)

Part F - 1:40 - (x1)

Part G - 1:42 - (x3)

Part F - 1:49 - (x1)

Part G - 1:52 - (x7)

Part F - 2:09 - (x8)

Part H - 2:28 - (x1) 
G|------------|
D|------------|
A|--0-0-0-0---|
E|------------|
Добавлено: 10.06.2012
Другие материалы по этой песне:
  • Аккорды и текст

Страница создана 10.06.2012
http://primanota.ru/international-noise-conspiracy/i-wanna-know-about-u-chords.htm
Привет, Гость.
Предлагаем пройти революционный курс по гитаре.
Подарок от PrimaNota.Ru, забирай!