PrimaNota.ru - самый крупный в мире бесплатный архив песенных текстов, аккордов, табулатур и нот


International Noise Conspiracy - I Am The Dynamite - таба, видео

Регистрация Запомнить меня
Войти через:  Facebook Google Twitter Vk Yandex Mail.ru

International Noise Conspiracy - I Am The Dynamite - таба, видео

Печатать
Просмотров: 111
The (International) Noise Conspiracy - I Am The Dynamite

Album: Cross The Cross Of My Calling
Instrument: Guitar
Tuning: eBGDAE

Tabbed By: Rolf Oslo


Intro

e||---------------------|---------------|
B||---------------------|---------------|
G||---------------------|---------------|
D||---------------------|---------------|
A||-6---6-6-4---4-6-----|-6-----------4-|
E||-----------6-----4---|---2-4-6-2-4---| x3

e||-------------------------------------|
B||-------------------------------------|
G||-------------------------3-----------|
D||-----------------4---4-6---6p4---4---|
A||-6---6-6-4---4-6---6-----------6---6-|
E||-----------6-------------------------|

e||------------------------|
B||---------7--7-7---7-7-7-|
G||-8-8--8--6--6-6---6-6-6-|
D||-8-8--8--4--4-4---4-4-4-|
A||-6-6--6-----------------|
E||------------------------|


Verse

e||--------------------------|
B||--------------------------|
G||-5-5---8---10--10--10-10--|
D||-5-5---8---10--10--10-10--|
A||-3-3---6---8---8---8--8---|
E||--------------------------| x3

e||------------------------|
B||---------7--7-7---7-7-7-|
G||-8-8--8--6--6-6---6-6-6-|
D||-8-8--8--4--4-4---4-4-4-|
A||-6-6--6-----------------|
E||------------------------|

e||--------------------------|
B||--------------------------|
G||-5-5---8---10--10--10-10--|
D||-5-5---8---10--10--10-10--|
A||-3-3---6---8---8---8--8---|
E||--------------------------| x3


Chorus

e||-4--7--4--7--|-9---9---9---9---|
B||-4--7--4--7--|-9---11--9---11--|
G||-5--8--5--8--|-10--11--10--11--|
D||-6--9--6--9--|-11--11--11--11--|
A||-6--9--6--9--|-11--9---11--9---|
E||-4--7--4--7--|-9-------9-------|


Post-Chorus

e||------------------------------|------------------------------|
B||------------------------------|------------------------------|
G||------------------8-10---10---|------------------------------|
D||------6--------10-------------|------6--------10--8-6-8-6----|
A||-6-8-----6-8------------------|-6-8-----6-8---------------6--|
E||------------------------------|------------------------------| x2

e||------------------------|
B||---------7--7-7---7-7-7-|
G||-8-8--8--6--6-6---6-6-6-|
D||-8-8--8--4--4-4---4-4-4-|
A||-6-6--6-----------------|
E||------------------------| x2


Verse

e||---------------------------|
B||---------------------------|
G||-5-5---8--9-10--10--10-10--|
D||-5-5---8--9-10--10--10-10--|
A||-3-3---6--7-8---8---8--8---|
E||---------------------------|

e||--------------------------|
B||--------------------------|
G||-5-5---8---10--10--10-10--|
D||-5-5---8---10--10--10-10--|
A||-3-3---6---8---8---8--8---|
E||--------------------------| x2

e||------------------------|
B||---------7--7-7---7-7-7-|
G||-8-8--8--6--6-6---6-6-6-|
D||-8-8--8--4--4-4---4-4-4-|
A||-6-6--6-----------------|
E||------------------------|

e||--------------------------|
B||--------------------------|
G||-5-5---8---10--10--10-10--|
D||-5-5---8---10--10--10-10--|
A||-3-3---6---8---8---8--8---|
E||--------------------------| x3


Chorus

e||-4--7--4--7--|-9---9---9---9---9---9--|
B||-4--7--4--7--|-9---11--9---11--9---11-|
G||-5--8--5--8--|-10--11--10--11--10--11-|
D||-6--9--6--9--|-11--11--11--11--11--11-|
A||-6--9--6--9--|-11--9---11--9---11--9--|
E||-4--7--4--7--|-9-------9-------9------|


Post-Chorus

e||------------------------------|------------------------------|
B||------------------8-----------|------------------------------|
G||--------------------10---10---|------------------------------|
D||------6--------10-------------|------6--------10--8-6-8-6----|
A||-6-8-----6-8------------------|-6-8-----6-8---------------6--|
E||------------------------------|------------------------------|

e||------------------------------|------------------------------|
B||------------------------------|------------------------------|
G||------------------8-10---10---|------------------------------|
D||------6--------10-------------|------6--------10--8-6-8-6----|
A||-6-8-----6-8------------------|-6-8-----6-8---------------6--|
E||------------------------------|------------------------------| x2

e||-----------------------------------|
B||-----------------------------------|
G||----------------8h10------8---6----|
D||------6-------------------8---6----|
A||-6-8-----6-8---------6h8-----------|
E||-----------------------------------|


e||------------------------------|------------------------------|
B||------------------------------|------------------------------|
G||------------------------------|------------------------------|
D||------------------8-10---10---|------------------------------|
A||------6--------10-------------|------6--------10--8-6-8-6----|
E||-6-8-----6-8------------------|-6-8-----6-8---------------6--| x2


Outro

e||------------------------------|------------------------------|
B||------------------------------|------------------------------|
G||------------------8-10---10---|------------------------------|
D||------6--------10-------------|------6--------10--8-6-8-6----|
A||-6-8-----6-8------------------|-6-8-----6-8---------------6--|
E||------------------------------|------------------------------|

If someone would please help with the outro part. Thanks!

Добавлено: 09.06.2012
Другие материалы по этой песне:
  • Аккорды и текст

Страница создана 09.06.2012
http://primanota.ru/international-noise-conspiracy/i-am-the-dynamite-chords.htm
Привет, Гость.
Предлагаем пройти революционный курс по гитаре.
Подарок от PrimaNota.Ru, забирай!