PrimaNota.ru - самый крупный в мире бесплатный архив песенных текстов, аккордов, табулатур и нот


Internal Suffering - Choronzonic Force Domination - таба, видео

Регистрация Запомнить меня
Войти через:  Facebook Google Twitter Vk Yandex Mail.ru

Internal Suffering - Choronzonic Force Domination - таба, видео

Печатать
Просмотров: 98
--- INTERNAL SUFFERING ---
                         "Choronzonic Force Domination"
                     From album: "Choronzonic Force Domination"


                            TABULATURE LEGEND:
                   " - tremolo             h - hammer on
                   ~ - vibrato             \ - slide down
                   p - pull off            / - slide down
                  tr - tremolo picking     ^ - pinch harmonics
                   = - sustained note      b - bend string
                p.m. - palm muting         t - tapping

TUNING: B [B, E, A, d, g, B]

[Riff 1 (x3)]
||------------------------------------------------------|
||o-----------------------------------------------------|
||------------------------------------------------------|
||------------------------------------------------------|
||o-5--------4-----7--6--5------------------------------|
||--5--6"-5"-4--5"-5--4--3--2"-3"-2"-6"-5"-4"-2"-2h3p2--|

                           _____________________________
                          | 1. 2.
-|------------------------------------------------------||
-|-----------------------------------------------------o||
-|-------------------------6"-----7"-----6"-----7"------||
-|----------------------------5------5------5------5----||
-|-5--------4-----7--6--5-------4------4------4------4-o||
-|-5--6"-5"-4--5"-5--4--3-------------------------------||

 __________________________
| 3.
---------------------------|
---------------------------|
-6"-----7"-----6"-----7===-|
----5------5------5--------|
------4------4------4-5===-|
---------------------------|

[Riff 2 (x4)]
||---------------------------------|--------------------------------||
||o--------------------------------|-------------------------------o||
||------6"..-----7"..--------------|-----6"..-----7"..--------------||
||---------------------------------|--------------------------------||
||o-4-4------4-4------4-4-8"-7"-5"-|-4-4------4-4---------------5"-o||
||---------------------------------|-------------------7"-6"-7"-----||
    . .      . .      . .            . .      . .

                             ____________________________
[Riff 3 (x4)]               | 1. 2. 3.
||--------------------------|----------------------------||
||o-------------------------|---------------------------o||
||--------------------------|-----------------6~-----7~--||
||--------------------------|----------------------------||
||o-5"-8"-5"-7"-4"-5"-2"-4"-|-5"-8"-5"-7"-4-4----4-4----o||
||--------------------------|----------------------------||
                                          . .    . .
 ________________________
| 4.
-------------------------|
-------------------------|
-------------------------|
-------------4--3--4--7--|
-5"-8"-5"-7"-2--1--2--5--|
-------------------------|

[RIFF 2 (x3)]

[Outro #1]
|--------------------------------|-------------------------------|
|--------------------------------|-------------------------------|
|-----6"..-----7"..--------------|-----6"..-----7"..-------------|
|--------------------------------|----------------------------7--|
|-4-4------4-4------4-4-8"-7"-5"-|-4-4------4-4---------------5--|
|--------------------------------|-------------------7"-6"-7"----|
  . .      . .      . .            . .      . .

[Riff 4 (x3)]
||--------------------------------------------------------|
||o-------------------------------------------------------|
||--------------------------------------------------------|
||--------------------------------------------------------|
||o-4--------------3--------------------------------------|
||--5--5-5-5-5-5-5-4--4-4-4-4-4-4-4-4-4-4-0"..-1"..-4"..--|
       . . . . . .    . . . . . . . . . .

-|--------------------------------------------------|
-|--------------------------------------------------|
-|--------------------------------------------------|
-|---------------------------------------6"-7"....--|
-|-4--------------3---------------------------------|
-|-5--5-5-5-5-5-5-4--4-4-4-4-4-4-4-4-4-4------------|
      . . . . . .    . . . . . . . . . .

-|-------------------------------------------------------|
-|-------------------------------------------------------|
-|-------------------------------------------------------|
-|-------------------------------------------------------|
-|-4--------------3--------------------------------------|
-|-5--5-5-5-5-5-5-4--4-4-4-4-4-4-4-4-4-4-0"..-1"..-4"..--|
      . . . . . .    . . . . . . . . . .

-|------------------------------------------------||
-|-----------------------------------------------o||
-|---------------------------------------^--------||
-|---------------------------------------7~--^----||
-|-4--------------3--------------------------6~--o||
-|-5--5-5-5-5-5-5-4--4-4-4-4-4-4-4-4-4-4----------||
      . . . . . .    . . . . . . . . . .

[Outro #2]
|--------------------------------|
|--------------------------------|
|--------------------------------|
|--------------------------------|
|-4--------------3---------------|
|-5--5-5-5-5-5-5-4---------------|
     . . . . . . .

[Outro #3]
|-------------------------|--------------------------|
|-------------------------|--------------------------|
|-------------------------|--------------------------|
|-5"-------8"...-9"-8"----|-5"-------8"......--------|
|----4"-------------------|----4"-------------7-6-5--|
|-------6"-------------6"-|-------6"----------5-4-3--|
|                         |                   . . . |
|-------------------------|--------------------------|
|-------------------------|--------------------------|
|-------------------------|--------------------------|
|-------------------------|--------------------------|
|-------------------------|-------------------7-6-5--|
|-------------------------|-------------------5-4-3--|
                                              . . .

-|-------------------------|--------------------------|
-|-------------------------|--------------------------|
-|-------------------------|--------------------------|
-|-5"-------8"...-9"-8"----|-5"-------8"...-9"-8"-11"-|
-|----4"-------------------|----4"--------------------|
-|-------6"-------------6"-|-------6"-----------------|
 |                         |                          |
-|-------------------------|--------------------------|
-|-------------------------|--------------------------|
-|-------------------------|--------------------------|
-|-5"-------8"...-9"-8"----|-5"-------8"...-9"-8"-11"-|
-|----4"-------------------|----4"--------------------|
-|-------6"-------------6"-|-------6"-----------------|

[Riff 5 (x2)]
||--------------------------|---------------------------||
||o-------------------------|--------------------------o||
||--------------------------|---------------------------||
||--5"-------8"...-9"-8"----|-5"-------8"...-9"-8"-12"--||
||o----4"-------------------|----4"--------------------o||
||--------6"-------------6"-|-------6"------------------||

[Outro #4]
|-------------------------|-------------------------|
|-------------------------|-------------------------|
|-------------------------|-------------------------|
|-5"-------8"...-9"-8"----|-5"-------8"......-------|
|----4"-------------------|----4"-------------7-6-5-|
|-------6"-------------6"-|-------6"----------5-4-3-|
                                              . . .

[Riff 6 (x4)]
||------------------------|---------------------|------------------------|
||o-----------------------|---------------------|------------------------|
||------------------------|---------------------|------------------------|
||--8----------8----------|-8-------------------|-8----------8-----------|
||o----8-8-7-7----8-8-7-7-|----8-8-7-7-9--8--7--|----8-8-7-7----8-8-7-7--|
||-----6-6-5-5----6-6-5-5-|----6-6-5-5-7--6--5--|----6-6-5-5----6-6-5-5--|
       . . . .    . . . .      . . . .               . . . .    . . . .

--------------------||
-------------------o||
--------------------||
--------------------||
-------------------o||
-2"-3"-4"-7"-6"-5"--||

[RIFF 2 (x3)]

[Outro #5]
|--------------------------------|-------------------------------|
|--------------------------------|-------------------------------|
|-----6"..-----7"..--------------|-----6"..-----7"..-------------|
|--------------------------------|-------------------------------|
|-4-4------4-4------4-4-8"-7"-5"-|-4-4------4-4------------------|
|--------------------------------|-------------------7"-6"-7"----|
  . .      . .      . .            . .      . .

[Bass outro]
|-{gtr. 1 & gtr. 2}-------------------|----------------------------------|
|-------------------------------------|----------------------------------|
|-------------------------------------|----------------------------------|
|-7==================================-|-7--------------------------------|
|-5==================================-|-5--------------------------------|
|-5==================================-|-5--------------------------1-2-1-|
|                                     | .                                |
|-{bass gtr.}-------------------------|----------------------------------|
|-------------------------------6--6--|----------------------------------|
|-5--4--5--4--3--4--5--4--5--4--------|-5--4--5--4--3--4--5--4--5--------|
|-------------------------------------|----------------------------1-2-1-|

[Riff 7 (x4)]
||---------------------------------------------------------------------------||
||o-------------------------------------------------------------------------o||
||---------------------------------------------------------------------------||
||--------------------------------6--6---------------------------------------||
||o-5--4--5--4--3--4--5--4--5--4--5--5--5--4--5--4--3--4--5--4--5-----------o||
||--5--4--5--4--3--4--5--4--5--4--4--4--5--4--5--4--3--4--5--4--5--1--2--1---||
    .  .  .  .  .  .  .  .  .  .          .  .  .  .  .  .  .  .  .

[Riff 8 (x2)]
||--------------------------------------|-------------------|
||o-------------------------------------|-------------------|
||--------------------------------------|-------------------|
||--------------------------------------|-------------------|
||o-5"-4"-5"-4"-3"-4"-5"-4"-5"-4"-------|-5"-4"-5"-4"-3"-4"-|
||--------------------------------4"-5"-|-------------------|

--------------------||
-------------------o||
--------------------||
--------------------||
-5"-4"-5"----------o||
----------1"-2"-1"--||

[Riff 9 (x2)]
||---------------------------------------|
||o--------------------------------------|
||---------------------------------------|
||--------------------------------6--6---|
||o-------------5--6--------------5--5---|
||--5"-4"-5"-4"-3--4--5"-4"-5"-4"-4--4---|

  _______________________________________
 |1.
-|---------------------------------------||
-|--------------------------------------o||
-|---------------------------------------||
-|---------------------------------------||
-|-------------5--6---------------------o||
-|-5"-4"-5"-4"-3--4--5"-4"-5"-1"-2"-1"---||

  ______________________________________
 |2.
-|--------------------------------------|
-|--------------------------------------|
-|--------------------------------------|
-|--------------------------------------|
-|-------------5--6-----------3--4--3---|
-|-5"-4"-5"-4"-3--4--5"-4"-5"-1--2--1---|
                              .  .  .

END OF SONG
Добавлено: 05.06.2013
Другие материалы по этой песне:

Страница создана 05.06.2013
http://primanota.ru/internal-suffering/choronzonic-force-domination-chords.htm
Привет, Гость.
Предлагаем пройти революционный курс по гитаре.
Подарок от PrimaNota.Ru, забирай!