PrimaNota.ru - самый крупный в мире бесплатный архив песенных текстов, аккордов, табулатур и нот


Interiors - 47 - таба, видео

Регистрация Запомнить меня
Войти через:  Facebook Google Twitter Vk Yandex Mail.ru

Interiors - 47 - таба, видео

Печатать
Просмотров: 74
Уроки эстрадного вокала в Санкт-Петербурге
-----------------------------------------------------------------------

47 - Interiors

-----------------------------------------------------------------------
tabbed by: Mike Coscia of Interiors

email: michaelanthonycoscia@gmail.com

Note: This song is performed on a seven string guitar and is tabbed as such, however it 
can also be played on a six string guitar tuned in drop A.

Tuning: AEaDGBe

e|--------------------------------------------------------------------|
B|--------------------------------------------------------------------|
G|--------------------------------------------------------------------|
D|--------------------------------------------------------------------|
a|---------------12---------7------7-------------11------12----------6|
E|-------12-----------------------------------------------------------|
A|--9-9-----9-9----4b---4-4----4-4----4-4-4-7--7----7-7-----2b--2-2---|

e|--------------------------------------------------------------------|
B|--------------------------------------------------------------------|
G|--------------------------------------------------------------------|
D|--------------------------------------------------------------------|
a|------6--------------------12------------7------7-------------11----|
E|--------------------12----------------------------------------------|
A|--2-2----2-6-7-9-9-----9-9-----4b---4-4-----4-4----4-4-4-7--7----7-7|

e|--------------------------------------------------------------------|
B|--------------------------------------------------------------------|
G|--------------------------------------------------------------------|
D|--------------------------------------------------------------------|
a|--12------------6-------6---------12--12-12--12--12-7---7--7-7--7---|
E|----------------------------------9---9--9---9---9--4---4--4-4--4---|
A|-----2b---2--2-----2-2-----2-2-2--9---9--9---9---9--4---4--4-4--4---|

e|--------------------------------------------------------------------|
B|--------------------------------------------------------------------|
G|--------------------------------------------------------------------|
D|--------------------------------------------------------------------|
a|--7-7--7-7-7--11--11-11--11--12--6---6---6-6---6---6-6--6-6-6-------|
E|--4-4--4-4-4--7---7--7---7---7---2---2---2-2---2---2-2--2-2-2-repeat|
A|--4-4--4-4-4--7---7--7---7---7---2---2---2-2---2---2-2--2-2-2-------|

e|--------------------------------------------------------------------|
B|--------------------------------------------------------------------|
G|--------------------------------------------------------------------|
D|-------------------------------------11------------6-----6----------|
a|harmony-to-final-section------11------------------------------------|
E|--------------------------------------------------------------------|
A|--------------------------9-9----9-9-----4b---4-4----4-4---4-4-4----|

e|--------------------------------------------------------------------|
B|--------------------------------------------------------------------|
G|--------------------------------------------------------------------|
D|-------9-------11------------4-------4------------------------------|
a|----------------------------------------------0----------0----------|
E|----------------------------------------------0----------0----------|
A|--7-7-----7-7------2b---2-2-----2-2-----2-2-2-0----------0----------|
Tremolo picking over intro:

e|--------------------------------------------------------------------|
B|--10--9--5--7--4----------------------------------------------------|
G|--------------------------------------------------------------------|
D|--------------------------------------------------------------------|
a|--------------------------------------------------------------------|
E|--------------------------------------------------------------------|
A|--------------------------------------------------------------------|


1:12 of song

e|--------------------------------------------------------------------|
B|--------------------------------------------------------------------|
G|--------------------------------------------------------------------|
D|--------------------------------------------------------------------|
a|--------------------------------------------------------------------|
E|--------------------------------------------------------------------|
A|--0-----0----0-0--x-x-x-x-x-x-x-0-----0----0-0----------------------|

e|--------------------------------------------------------------------|
B|--------------------------------------------------------------------|
G|-------------------------------------------------8-8-8-8-9-9-9------|
D|--------------------------------------------------------------------|
a|-------------------------------------------------6-6-6-6-7-7-7------|
E|--------------------------------------------------------------------|
A|--4-----4----4-4--x-x-x-x-x-x-x-4-----4----4-4--------------repeat1x|

e|--------------------------------------------------------------------|
B|--------------------------------------------------------------------|
G|------------------------------------------------11-11-11-11-13-13-13|
D|--harmony-----------------------------------------------------------|
a|------------------------------------------------9--9--9--9--11-11-11|
E|--------------------------------------------------------------------|
A|--4-----4----4-4--x-x-x-x-x-x-x-4-----4----4-4----------------------|


Lead riff at 1:28

e|--12--11--9----11--9-----------12/16--14--11-12--9--11--14--12------|
B|----------------------12---9b---------------------------------------|
G|--------------------------------------------------------------------|
D|--------------------------------------------------------------------|
a|--------------------------------------------------------------------|
E|--------------------------------------------------------------------|
A|--------------------------------------------------------------------|

1:44 (strum openly)

e|--------------------------------------------------------------------|
B|--------------------------------------------------------------------|
G|--------------------------------------------------------------------|
D|--------------------------------------------------------------------|
a|--0--4--7--2--------------------------------------------------------|
E|--0--4--7--2--------------------------------------------------------|
A|--0--4--7--2--------------------------------------------------------|

1:44 (lead)

e|--12--11--9----11-9h12/16--14---------------------------------------|
B|--------------------------------16h17p16--14----14--17--16--14------|
G|---------------------------------------------16----------------14-16|
D|--------------------------------------------------------------------|
a|--------------------------------------------------------------------|
E|--------------------------------------------------------------------|
A|--------------------------------------------------------------------|

e|-------12--11--9----11-12--11h12/16--14--12---11h12-11h12--12--11--9|
B|--------------------------------------------------------------------|
G|--13b---------------------------------------------------------------|
D|--------------------------------------------------------------------|
a|--------------------------------------------------------------------|
E|--------------------------------------------------------------------|
A|--------------------------------------------------------------------|

e|--11--9-------------------------------------------------------------|
B|---------12--10-12--9b----------------------------------------------|
G|--------------------------------------------------------------------|
D|--------------------------------------------------------------------|
a|--------------------------------------------------------------------|
E|--------------------------------------------------------------------|
A|--------------------------------------------------------------------|

2:16

e|--------------------------------------------------------------------|
B|--------------------------------------------------------------------|
G|--------------------------------------------------------------------|
D|--------------------------------------------------------------------|
a|-----------------------0-4-7-0-12-9-0-11---------------------12-9-0-|
E|--------------------------------------------------------------------|
A|--0-0-0---0----0-0-0---------------------0-0-0---0----0-0-0---------|

e|--------------------------------------------------------------------|
B|--------------------------------------------------------------------|
G|--------------------------------------------------------------------|
D|--------------------------------------------------------------------|
a|--11-0-12-14-16-repeat-1x-------------------------------------------|
E|--------------------------------------------------------------------|
A|--------------------------------------------------------------------|


2:32 (heavily palm mute) Follow rhythm, chord does not change.


e|--------------------------------------------------------------------|
B|--------------------------------------------------------------------|
G|--------------------------------------------------------------------|
D|--2-----------------------------------------------------------------|
a|--0-----------------------------------------------------------------|
E|--0-----------------------------------------------------------------|
A|--0-----------------------------------------------------------------|

3:22

e|--------------------------------------------------------------------|
B|--------------------------------------------------------------------|
G|--------------------------------------------------------------------|
D|--------------------------------------------------------------------|
a|--------12----------7---------11----------6--------12---------7-----|
E|----9---------4---4------7----------2---2------9--------4---4-------|
A|--9---9----4----4------7---7------2---2------9---9----4---4---------|

e|--------------------------------------------------------------------|
B|--------------------------------------------------------------------|
G|--------------------------------------------------------------------|
D|--------------------------------------------------------------------|
a|---------11-12---------6--------------------------------------------|
E|----7------------2---2----------------------------------------------|
A|--7---7--------2---2------------------------------------------------|

3:22 (ambient background lead)

e|--16--14--12-----14--12--11---12---repeat-1x------------------------|
B|--------------------------------------------------------------------|
G|--------------------------------------------------------------------|
D|--------------------------------------------------------------------|
a|--------------------------------------------------------------------|
E|--------------------------------------------------------------------|
A|--------------------------------------------------------------------|
Добавлено: 23.10.2013
Другие материалы по этой песне:
  • Аккорды и текст

Страница создана 23.10.2013
http://primanota.ru/interiors/47-chords.htm
Привет, Гость.
Предлагаем пройти революционный курс по гитаре.
Подарок от PrimaNota.Ru, забирай!