PrimaNota.ru - самый крупный в мире бесплатный архив песенных текстов, аккордов, табулатур и нот


Integrity - Hated Of The World - таба, видео

Регистрация Запомнить меня
Войти через:  Facebook Google Twitter Vk Yandex Mail.ru

Integrity - Hated Of The World - таба, видео

Печатать
Просмотров: 116
-----------------------------------------------------------------------------
                             HATED OF THE WORLD - Integrity
-----------------------------------------------------------------------------
tabbed by: Bentley Goddard
E-mail:bentleygoddard@gmail.com

Tuning:drop D

Intro (& Outro); played with fast delay until distortion comes in
e|--------------------------------------------------------------------------|
B|--------------------------------------------------------------------------|
G|--------------------------------------------------------------------------|
D|-------8-------9-----998--------4-------2--1-2-1--------------------------|
A|-6-686---6-686---6-8------2-242---2-242-----------------------------------|
E|--------------------------------------------------------------------------|

e|--------------------------------------------------------------------------|
B|--------------------------------------------------------------------------|
G|--------------------------------------------------------------------------|
D|-------8--------9------9p8--------4-------2-121------------4-------2-121--|
A|-6h8p6---6h8p6----6h8-------2h4p2---2h4p2-------0000-2h4p2---2h4p2--------|
E|------------------------------------------------0000----------------------|

rhythm chords
e|--------------------------------------------------------------------------|
B|--------------------------------------------------------------------------|
G|--------------------------------------------------------------------------|
D|-8~--4~-------------7------99-9/8-----------------------------------------|
A|-6---2--(verse)0000-5-0000-77-7/6-----------------------------------------|
E|---------------0000---0000--------(x4)------------------------------------|

e|--------------------------------------------------------------------------|
B|--------------------------------------------------------------------------|
G|---------------7\10-------------------------------------------------------|
D|---------------5\8--------------------------------------------------------|
A|-000-01-0-0-00------000-01-0-0--------------------------------------------|
E|-000-01-0-0---------000-01-0-0--------------------------------------------|

repeat.
Добавлено: 27.10.2013
Вам также может быть интересно:
Другие материалы по этой песне:
  • Аккорды и текст

Страница создана 27.10.2013
http://primanota.ru/integrity/hated-of-the-world-chords.htm
Привет, Гость.
Предлагаем пройти революционный курс по гитаре.
Подарок от PrimaNota.Ru, забирай!