PrimaNota.ru - самый крупный в мире бесплатный архив песенных текстов, аккордов, табулатур и нот


Insyderz - Weebles - таба, бас-таба, видео

Регистрация Запомнить меня
Войти через:  Facebook Google Twitter Vk Yandex Mail.ru

Insyderz - Weebles - таба, бас-таба, видео

Печатать
Просмотров: 135
Уроки эстрадного вокала в Санкт-Петербурге
		   Weebles
Insyderz
Tab by Jon King (augosaid.u..t.s.j@juno.com)

This song I figured out while trying to be funky on my 5-string electric
guitar, I thought I'd made up a really cool song until I finally realized
what I was playing was the main guitar part in Weebles.  The only part(s)
I couldn't figure out are the really hard parts that I would need a
funktifier pedal for so this is really just the parts being played during
the no-singing parts and chorus.

these chords are played a lot of the song and start at somewhere around
:27 (I think)
|---------------------------------------------|
|--13-13--X--8-8--X--6-6--X--8-8--------------|
|--12-12--X--7-7--X--5-5--X--7-7--------------|
|--14-14--X--9-9--X--7-7--X--9-9--------------|
|---------------------------------------------|
|---------------------------------------------|

|--------------------------------------------|
|--13-13--X--8-8--X--10-10-X--10-------------|
|--12-12--X--7-7--X--9--9--X--9--------------|
|--14-14--X--9-9--X--11-11-X--11-------------|
|--------------------------------------------|
|--------------------------------------------|
(this also sounds cool)
|---------------------------------------------|
|--13-13--X--8-8--X--11-11--X--6-6------------|
|--12-12--X--7-7--X--10-10--X--5-5------------|
|--14-14--X--9-9--X--12-12--X--7-7------------|
|---------------------------------------------|
|---------------------------------------------|
just fool around with those chords and that's the song minus the
funk-parts (which is most of the song)

 There's also like two or three chords during the chorus but if you've
heard this song then maybe you'll understand why I didn't put them down
under words.   (although I think the chords are something like C sliding
up to C#).


     
Добавлено: 22.06.2013
Другие материалы по этой песне:
  • Аккорды и текст

Страница создана 28.02.2012
http://primanota.ru/insyderz/weebles-chords.htm
Привет, Гость.
Предлагаем пройти революционный курс по гитаре.
Подарок от PrimaNota.Ru, забирай!