PrimaNota.ru - самый крупный в мире бесплатный архив песенных текстов, аккордов, табулатур и нот


Insyderz - God Almighty - таба, видео

Регистрация Запомнить меня
Войти через:  Facebook Google Twitter Vk Yandex Mail.ru

Insyderz - God Almighty - таба, видео

Печатать
Просмотров: 108
I was so disappointed when I saw nobody had this tabbed :/ Anyway, here are the lead and rhythm parts:

Intro (Rhythm and Lead)

e||-----------------------------------||-------------------||---------------------------------------||
B||-----------------------------------||-------------------||---------------------------------------||
G||.-xx4-xx4-------------------------.||.-44-66-88-66-8-6-.||.-44444444----------------------------.||
D||.-xx4-xx4-xx4-xx4-xx6-xx6-xx2-xx2-.||.-----------------.||.-44444444-44444444-66666666-22222222-.||
A||--xx2-xx2-xx4-xx4-xx6-xx6-xx2-xx2--||--22-44-66-44-6-4--||--22222222-44444444-66666666-22222222--||
E||----------xx2-xx2-xx4-xx4-xx0-xx0--||-------------------||-----------22222222-44444444-00000000--||

Verse 1 (Rhythm)

     REPEAT THIS MEASURE THREE TIMES.
e||-----------------------------------||-------------------------------------|
B||-----------------------------------||-------------------------------------|
G||.-xx4-xx4-------------------------.||-44444444----------------------------|
D||.-xx4-xx4-xx4-xx4-xx6-xx6-xx2-xx2-.||-44444444-44444444-66666666-22222222-|
A||--xx2-xx2-xx4-xx4-xx6-xx6-xx2-xx2--||-22222222-44444444-66666666-22222222-|
E||----------xx2-xx2-xx4-xx4-xx0-xx0--||----------22222222-44444444-00000000-|

Verse 1 (Lead)

e|----------------|-------------|
B|-4b5r4b5r4b5r4~-|-------------|
G|----------------|-random------|
D|----------------|-pick-scrape-|
A|----------------|-------------|
E|----------------|-------------|

Pre-Chorus (Rhythm and Lead) 

e|-----------------|
B|-----------------|
G|-44-66-88-66-8-6-|
D|-----------------|
A|-22-44-66-44-6-4-|
E|-----------------|

Chorus (Rhythm and/or Lead)

e||----------------------------------------||-----------------------|
B||----------------------------------------||-----------------------|
G||.--44444444----------------------------.||-9-8-6-9-8-6-9-8-6-6-4-|
D||.--44444444-44444444-66666666-22222222-.||-----------------------|
A||---22222222-44444444-66666666-22222222--||-7-6-4-7-6-4-7-6-4-4-2-|
E||------------22222222-44444444-00000000--||-----------------------|

e|------------------------------------------------------------|
B|------------------------------------------------------------|
G|-44444444-1111111111111111-13-13-13-13-13-13-13-13-99999999-|
D|------------------------------------------------------------|
A|-22222222-9-9-9-9-9-9-9-9--11-11-11-11-11-11-11-11-77777777-|
E|------------------------------------------------------------|

Interlude (Rhythm)

e||------||
B||------||
G||.-4~-.||
D||.-4~-.||
A||--2~--||
E||------||

Interlude (Lead)

e||--------------------------||
B||-------16----------16-----||
G||.---16----16----16----16-.||
D||.-16----------16---------.||
A||--------------------------||
E||--------------------------||

Verse 2 (Rhythm and Lead) are the same as Verse 1

Bridge (Rhythm and/or Lead)

PLAY FIRST MEASURE THREE TIMES.
e||----------||-------------|
B||----------||-------------|
G||.-4~-----.||-4~----------|
D||.-4~-6~--.||-4~-66666666-|
A||--2~-6~---||-2~-66666666-|
E||-----4~---||----44444444-|

Outro (Rhythm)

e|-------------------------------------|------------------------|
B|-------------------------------------|------------------------|
G|-44444444----------------------------|-44444444---------------|
D|-44444444-44444444-66666666-22222222-|-44444444-44444444-6666-|
A|-22222222-44444444-66666666-22222222-|-22222222-44444444-6666-|
E|----------22222222-44444444-00000000-|----------22222222-4444-|
                                                           >>>>

Outro (Lead)

e|-------------|
B|-------------|
G|-random------|
D|-pick-scrape-|
A|-------------|
E|-------------|

Play both parts (Rhythm and Lead) in this order:
Intro
Verse 1
Pre-Chorus
Chorus
Interlude
Verse 2 (same as Verse 1)
Chorus
Bridge
Chorus
Outro

Here are the techniques used:
>     accent mark
br... bend-release
~     let ring
x     palm mute

Also:
||
||
||. is a repeat bar; repeat what is in the bars either once more or whatever is specified.
||.
||
||

Well, that's it. I hope you enjoy this song as much as I do; please comment/rate--God bless you, anyways! :-)

-Romans 10:9-10;13
Добавлено: 08.04.2015
Другие материалы по этой песне:
  • Аккорды и текст

Страница создана 08.04.2015
http://primanota.ru/insyderz/god-almighty-chords.htm
Привет, Гость.
Предлагаем пройти революционный курс по гитаре.
Подарок от PrimaNota.Ru, забирай!