PrimaNota.ru - самый крупный в мире бесплатный архив песенных текстов, аккордов, табулатур и нот


Institute - Seventh Wave - текст песни, таба, видео

Регистрация Запомнить меня
Войти через:  Facebook Google Twitter Vk Yandex Mail.ru

Institute - Seventh Wave - текст песни, таба, видео

Печатать
Просмотров: 178
Уроки эстрадного вокала в Санкт-Петербурге
Band- Institute
Song- Seventh Wave

Tuned down half step in Drop C#


   /Riff 1                              4x   /0:09 Verse 1 [Part 1] 
D#|--------------------------------------------------------------------------------------------|
A#|-----------------------------------------|--------------------------------------------------|
F#|*-7-7-7-7-7-7---x---x---x---x---x---x---*|*------------------------------------------------*|
C#|*-x-x-x-x-x-x--[6]-[6]-[6]-[6]-[6]-[6]--*|*--3---.------3---.------3---.------0---.----0.--*|
G#|-----------------------------------------|---3---.------3---.------3---.------0---.----0.---|
D#|---------------------------------------------3---.------3---.------3---.------0---.----0.---|


  [Part 2]                                                         /0:48 Pre-Chorus           /
|--------------------------------------------------------------------------------------------|
|-----------------------------------------------------------------|--------------------------|
|*---------------------------------------------------------------*|*-------------------------|
|*--3---.----3.-----3---.----3.-----0---.----0.-----0---.----0.--*|*-------------------------|
|---3---.----3.-----3---.----3.-----0---.----0.-----0---.----0.---|--------------------------|
|---3---.----3.-----3---.----3.-----0---.----0.-----0---.----0.-------8---8--0---0-0-0--8---8|


                                                    /1:07 Chorus
|--------------------------------------------------------------------------------------------|
|--------------------------------------------------|-----------------------------------------|
|-------------------------------------------------*|*----------------------------------------|
|-------------------------------------------------*|*-9-9-9-9-9-9-9-9-9-9-9-9--12-12-12-12--5|
|--------------------------------------------------|--9-9-9-9-9-9-9-9-9-9-9-9--12-12-12-12--5|
|--0---0-0-0--5---5--0---0-0-0--5---5--0---0-0-0------9-9-9-9-9-9-9-9-9-9-9-9--12-12-12-12--5|


|--------------------------------------------------------------------------------------------|
|--------------------------------------------------------------------------------------------|
|--------------------------------------------------------------------------------------------|
|-5-5-5-5-5-5-5-5-5-5-5--9-9---2-2-2-2-2-2-2-2-2-2-2-2-0------2-2-2-2-2-2-2-2-2-2-2-0-7-7-7-7|
|-5-5-5-5-5-5-5-5-5-5-5--9-9---2-2-2-2-2-2-2-2-2-2-2-2-0------2-2-2-2-2-2-2-2-2-2-2-0-7-7-7-7|
|-5-5-5-5-5-5-5-5-5-5-5--9-9---2-2-2-2-2-2-2-2-2-2-2-2-0------2-2-2-2-2-2-2-2-2-2-2-0-7-7-7-7|


                                     /1:31 Verse 2                  /1:59 Pre-Chorus 2     /2
|--------------------------------------------------------------------------------------------|
|--|--------------------------------|------------------------------|----------------------|--|
|-*|--------------------------------|-------------Verse------------|------Pre-Chorus------|--|
|-*|-3---.------3---.--------0-0--0-|-----[Part-1-only-1-time]-----|----------------------|--|
|--|-3---.------3---.--------0-0--0-|------------------------------|----------------------|--|
|----3---.------3---.--------0-0--0----------------------------------------------------------|
                             p.m...|
 

  :18 Chorus 2     
|--------------------------------------------------------------------------------------------|
|----------------|---------------------------------------------------------------------------|
|----Chorus-1x---|---------------------------------------------------------------------------|
|----------------|-9-9-9-9-9-9-9-9-9-9-9-9--12-12-12-12--5-5-5-5-5-5-5-5-5-5-5-5--9-9---2-2-2|
|----------------|-9-9-9-9-9-9-9-9-9-9-9-9--12-12-12-12--5-5-5-5-5-5-5-5-5-5-5-5--9-9---2-2-2|
|------------------9-9-9-9-9-9-9-9-9-9-9-9--12-12-12-12--5-5-5-5-5-5-5-5-5-5-5-5--9-9---2-2-2|


                                                                                    /2:47 Int  
|--------------------------------------------------------------------------------------------|
|-------------------------------------------------------------|--------------------|---------|
|-------------------------------------------------------------|------Chorus-1x-----|*--------|
|-2-2-2-2-2-2-2-2-2-2-0------2-2-2-2-2-0------2-2-2-2-2/7-----|--------------------|*-8------|
|-2-2-2-2-2-2-2-2-2-2-0------2-2-2-2-2-0------2-2-2-2-2/7-----|--------------------|--8------|
|-2-2-2-2-2-2-2-2-2-2-0------2-2-2-2-2-0------2-2-2-2-2/7-----------------------------8------|


  erlude                       
|--------------------------------------------------------------------------------------------|
|-----------------------|--------------------------------------------------------------------|
|----------------------*|*-------------------------------------------------------------------|
|-------5--------------*|*-8--8--8--8--8--8--8--8--8--8--8--8--8--8--8--8--5--5--5--5--5--5--|
|-------5---------------|--8--8--8--8--8--8--8--8--8--8--8--8--8--8--8--8--5--5--5--5--5--5--|
|-------5------------------8--8--8--8--8--8--8--8--8--8--8--8--8--8--8--8--5--5--5--5--5--5--|


                                  /3:25 Chorus 3
|--------------------------------------------------------------------------------------------|
|--------------------------------|--------------------|--------------------------------------|
|-------------------------------*|------Chorus-2------|--------------------------------------|
|-5--5--5--5--5--5--5--5--5--5--*|--------------------|-9-9-9-9-9-9-9-9-9-9-9-9--12-12-12-12-|
|-5--5--5--5--5--5--5--5--5--5---|--------------------|-9-9-9-9-9-9-9-9-9-9-9-9--12-12-12-12-|
|-5--5--5--5--5--5--5--5--5--5--------------------------9-9-9-9-9-9-9-9-9-9-9-9--12-12-12-12-|


|--------------------------------------------------------------------------------------------|
|--------------------------------------------------------------------------------------------|
|--------------------------------------------------------------------------------------------|
|-5-5-5-5-5-5-5-5-5-5-5-5--9-9---2-2-2-2-2-2-2-2-2-2-2-2-0------2-2-2-2-2-0------2-2-2-2-2-0-|
|-5-5-5-5-5-5-5-5-5-5-5-5--9-9---2-2-2-2-2-2-2-2-2-2-2-2-0------2-2-2-2-2-0------2-2-2-2-2-0-|
|-5-5-5-5-5-5-5-5-5-5-5-5--9-9---2-2-2-2-2-2-2-2-2-2-2-2-0------2-2-2-2-2-0------2-2-2-2-2-0-|


|-------------------------------------------|
|-------------------------------------------|
|----------------Let-------to---------------|
|----2---------------ring------the-End.-----|
|----2--------------------------------------|
|----2--------------------------------------|

_____________________________________________________________________________________________

SECOND Guitar parts:


     /0:18        /0:28 Riff 1         /0:47 Pre-Chorus 1
D#|--------------------------------------------------------------------------------------------|
A#|-|-8b(9)----|-|--------------------|--------------------------------------------------------|
F#|-|----------|-|------Riff-1-8x-----|*--------------------------------------------------17-17|
C#|-|----------|-|--------------------|*-19-19-19-19-19-19-19-19-19-19-19-19-19-19-19-19-------|
G#|-|----------|-|--------------------|--------------------------------------------------------|
C#|--------------------------------------------------------------------------------------------|

                           
                                                  /1:07 Chorus 1                              /
|--------------------------------------------------------------------------------------------|
|------------------------------------------------|-------------------------------------------|
|-17-17-17-17-17-17-17-17-17-17-17-17-17-17-17--*|*--16-16-16-16-16-16-16-16-16-16-16-16--19-|
|-----------------------------------------------*|*--16-16-16-16-16-16-16-16-16-16-16-16--19-|
|------------------------------------------------|---14-14-14-14-14-14-14-14-14-14-14-14--17-|
|--------------------------------------------------------------------------------------------|


|--------------------------------------------------------------------------------------------|
|--------------------------------------------------------------------------------------------|
|-19-19-19--12-12-12-12-12-12-12-12-12-12-12-12--16-16-------9-9-9-9-9-9-9-9-9-9-9-9-9-9-9-9-|
|-19-19-19--12-12-12-12-12-12-12-12-12-12-12-12--16-16-------9-9-9-9-9-9-9-9-9-9-9-9-9-9-9-9-|
|-17-17-17--10-10-10-10-10-10-10-10-10-10-10-10--14-14-------7-7-7-7-7-7-7-7-7-7-7-7-7-7-7-7-|
|--------------------------------------------------------------------------------------------|



                                            /1:39      /1:40 Riff 1         /1:59 Pre-Chorus 
|--------------------------------------------------------------------------------------------|
|----------------------------------------|-|-8b(9)----|--------------------|-----------------|
|-9-9-9-9-9-9-9-9-9-9-9-9--14-14-14-14--*|-|----------|------Riff-1-8x-----|------Pre-Chorus-|
|-9-9-9-9-9-9-9-9-9-9-9-9--14-14-14-14--*|-|----------|--------------------|-----------------|
|-7-7-7-7-7-7-7-7-7-7-7-7--12-12-12-12---|-|----------|--------------------|-----------------|
|--------------------------------------------------------------------------------------------|


  2    /2:18 Chorus 2
|--------------------------------------------------------------------------------------------|
|-----|--------------------|-----------------------------------------------------------------|
|-----|------Chorus-1------|-16-16-16-16-16-16-16-16-16-16-16-16--19-19-19-19--12-12-12-12-12|
|-----|--------------------|-16-16-16-16-16-16-16-16-16-16-16-16--19-19-19-19--12-12-12-12-12|
|-----|--------------------|-14-14-14-14-14-14-14-14-14-14-14-14--17-17-17-17--10-10-10-10-10|
|--------------------------------------------------------------------------------------------|


|--------------------------------------------------------------------------------------------|
|--------------------------------------------------------------------------------------------|
|-12-12-12-12-12-12-12--16-16----9-9-9-9-9-9-9-9-9-9-9-9-9\7------9-9-9-9-9\7------9-9-9-9-9/|
|-12-12-12-12-12-12-12--16-16----9-9-9-9-9-9-9-9-9-9-9-9-9\7------9-9-9-9-9\7------9-9-9-9-9/|
|-10-10-10-10-10-10-10--14-14----7-7-7-7-7-7-7-7-7-7-7-7-7\5------7-7-7-7-7\5------7-7-7-7-7/|
|--------------------------------------------------------------------------------------------|


                                   /3:25 Chorus 3
|--------------------------------------------------------------------------------------------|
|----------|--------------------|-|--------------------|-------------------------------------|
|-/14------|------Chorus-1x-----|-|------Chorus-2------|-16-16-16-16-16-16-16-16-16-16-16-16-|
|-/14------|--------------------|-|--------------------|-16-16-16-16-16-16-16-16-16-16-16-16-|
|-/12------|--------------------|-|--------------------|-14-14-14-14-14-14-14-14-14-14-14-14-|
|--------------------------------------------------------------------------------------------|


|--------------------------------------------------------------------------------------------|
|--------------------------------------------------------------------------------------------|
|--19-19-19-19--12-12-12-12-12-12-12-12-12-12-12-12--16-16----9-9-9-9-9-9-9-9-9-9-9-9-9\7----|
|--19-19-19-19--12-12-12-12-12-12-12-12-12-12-12-12--16-16----9-9-9-9-9-9-9-9-9-9-9-9-9\7----|
|--17-17-17-17--10-10-10-10-10-10-10-10-10-10-10-10--14-14----7-7-7-7-7-7-7-7-7-7-7-7-7\5----|
|--------------------------------------------------------------------------------------------|


|------------------------------------||
|----------------------------------|-||
|--9-9-9-9-9\7------9-9-9-9-9\7----|-||
|--9-9-9-9-9\7------9-9-9-9-9\7----|-||
|--7-7-7-7-7\5------7-7-7-7-7\5----|-||
|------------------------------------||



-----------------------------------------------------------------------------------------------
=======================
=TABLATURE EXPLANATION=
=======================

12))) = intensify volume on your guitar

* = palm mute

A.H. = Artificial Harmonic

pm..| = Palm mute

h = hammer on

p = pull off

/ = slide up

\ = slide down

~ = Vibrato

b() = Bend

x\ = Pick Slide

--------
--------
---12--- = Tremolo pick
----/---
----/---
----/---

---.---
--12--- = Staccato
-------
-------
-------

|     |
|     |
|*   *| = repeat from * to *
|*   *| 
|     |

. = mute
Добавлено: 30.05.2012
Вам также может быть интересно:
Другие материалы по этой песне:
  • Аккорды и текст

Страница создана 26.05.2012
http://primanota.ru/institute/seventh-wave-chords.htm
Привет, Гость.
Предлагаем пройти революционный курс по гитаре.
Подарок от PrimaNota.Ru, забирай!