PrimaNota.ru - самый крупный в мире бесплатный архив песенных текстов, аккордов, табулатур и нот


Inspired But Divided - Reflect - таба, видео

Регистрация Запомнить меня
Войти через:  Facebook Google Twitter Vk Yandex Mail.ru

Inspired But Divided - Reflect - таба, видео

Печатать
Просмотров: 59
Inspired But Divided
Reflect
From the album Reflect

members:
Bobby Mullet= Lead Vocals/Guitar
Johnny Crash= Lead Guitar/Vocals
All other instruments were also played by these members

Song can be heard here
https://soundcloud.com/preston-rafikiswag-senter/reflect

this song was recorded and produced by Red District Records
any attempts to use these songs for prophet will be prosecuted


PLEASE DO COVER THIS SONG AND POST VIDS!!

Standard Tuning ( E A D G b e )


(intro)

e---------------------------------|
b----12------12-----12-------12---|
g----12------12-----12-------12---|
d---------------------------------|
a---------------------------------|
E-12---12-12---12-12---12-12---12-|

e----------------------------------------|
b----12------12-----12-------------------|
g----12------12-----12-------------------|
d----------------------------12~~~~~~~~--|
a----------------------------12----------|slide-up
E-12---12-12---12-12---12-12-10~~~~~~~~--|

(verse 1)Bobby Mullet
Breaking the ropes that I've been tied to.
With a lifting voice, you lead us to our doom.
I refuse to be another link in yo chain.
From how it looks it seems that pleasure to you,
Is just pain, yeah.

e-----3-----------------------5---------------|
b-----3-------5-------3-------5---------------|
g-------------4-------4-----------------------|
d-------------------------------------(x8)----|
a---------------------------------------------|
E-0-----0-5-----0-3-----0-5-----5-------------|

(chorus)Johnny Crash & Bobby Mullet
What do you see when you look in the mirror?
Is it a scarred reflection? Could it get any clearer?
An ugly perception, Corruption reflecting off the water?
Oh, what do you see when you look in the mirror?
Reflect!

e--------------------------------------------------------------|
b---3---3---3---3---7---7---7---7------------------------------|
g----4--4----4--4----8--8----8--8------------------------------|
d--------------------------------------------------------------|
a--------------------------------------------------------------|
E-3---3---3---3---7---7---7---7--------------------------------|

e--------------------------------------------------------------|
b---8---8---8---8---5---5---5---5------------------------------|
g----7--7----7--7----4--4----4--4------------------------------|
d-------------------------------------(x4)---------------------|
a--------------------------------------------------------------|
E-8---8---8---8---5---5---5---5--------------------------------|

(verse 2)Johnny Crash
If you close your eyes & cover up your ears,
then you wont know what to say and you wont know what to hear.
If you just sit tight and listen to the man with a gun,
then you will never know how to have any fun.

e-----3-----------------------5---------------|
b-----3-------5-------3-------5---------------|
g-------------4-------4-----------------------|
d-------------------------------------(x8)----|
a---------------------------------------------|
E-0-----0-5-----0-3-----0-5-----5-------------|


(chorus)Johnny Crash & Bobby Mullet
What do you see when you look in the mirror?
Is it a scarred reflection? Could it get any clearer?
An ugly perception, Corruption reflecting off the water?
Oh, what do you see when you look in the mirror?
Reflect!

e--------------------------------------------------------------|
b---3---3---3---3---7---7---7---7------------------------------|
g----4--4----4--4----8--8----8--8------------------------------|
d--------------------------------------------------------------|
a--------------------------------------------------------------|
E-3---3---3---3---7---7---7---7--------------------------------|

e--------------------------------------------------------------|
b---8---8---8---8---5---5---5---5------------------------------|
g----7--7----7--7----4--4----4--4------------------------------|
d-------------------------------------(x4)---------------------|
a--------------------------------------------------------------|
E-8---8---8---8---5---5---5---5--------------------------------|

GUITAR SOLO:

Rhythm plays this once through
e----------------------------------|
b----12------12-----12-------12----|
g----12------12-----12-------12----|
d----------------------------------|
a----------------------------------|
E-12---12-12---12-12---12-12---12--|

e----------------------------------------|
b----12------12-----12-------------------|
g----12------12-----12-------------------|
d----------------------------12~~~~~~~~~-|
a----------------------------12----------|slide-up
E-12---12-12---12-12---12-12-10~~~~~~~~~-|

(and then play this)


e-----3-----------------------5---------------|
b-----3-------5-------3-------5---------------|
g-------------4-------4-----------------------|
d-------------------------------------(x10)---|
a---------------------------------------------|
E----0-5-----0-3-----0-5-----5----------------|

(Lead Guitar)

e----------------------------------------------|
b----------------------------------------------|
g-9~~~~~~~~~~~~~~~~~~~~~~~~~~~~~~~~~~~\\\\\\\\\\
d-x-----------------------------------slide-down
a-7~~~~~~~~~~~~~~~~~~~~~~~~~~~~~~~~~~~//////////
E----------------------------------------------
                     (bend half-step)       (bend half-step)
e-------------------------------------------------------|
b-------------------------------------------------------|
g---------------12-14-14^(15)-14-12----12-14-14-14^(15--|
d---------12-14---------------------14------------------|
a12-13-14-----------------------------------------------|
E-------------------------------------------------------|
               (bend half-step)  (series of pulloffs)
e------------------------------------------------------|
b------------------------------15p12--15p12--15p12--15-|
g-14-12----12-14-14-14^(15)-14------14-----14-----14---|
d-------14---------------------------------------------|
a------------------------------------------------------|
E------------------------------------------------------|
(bend up full step and pluck each time)
e--------15~~15~~15~~~15~~~~~~~~~~~~~~~~~~~~~~~~~~~-
b-15^(17)~(17)~(17)~~(17)~~~~~~~~~~~~~~~~~~~~~~~~~~-
g--------------------------HEAVY-VIBRATO-&-SUSTAIN--|
d---------------------------------------------------|
a---------------------------------------------------|
E---------------------------------------------------|

e-5h7p5-5--------------------------------------------|
b------8-858-5h8p5-5---------------------------------|
g-----------------7-747-/7-4---4---------------------|
d----------------------------7---7-5---5-------------|
a------------------------------------7---7-5\2/5\2p0-|
E----------------------------------------------------|

(chorus)Johnny Crash & Bobby Mullet
What do you see when you look in the mirror?
Is it a scarred reflection? Could it get any clearer?
An ugly perception, Corruption reflecting off the water?
Oh, what do you see when you look in the mirror?
Reflect!

e----------------------------------------------|
b---3---3---3---3---7---7---7---7--------------|
g----4--4----4--4----8--8----8--8--------------|
d----------------------------------------------|
a----------------------------------------------|
E-3---3---3---3---7---7---7---7----------------|

e----------------------------------------------|
b---8---8---8---8---5---5---5---5--------------|
g----7--7----7--7----4--4----4--4--------------|
d-------------------------------------(x4)-----|
a----------------------------------------------|
E-8---8---8---8---5---5---5---5----------------|

(Outro)

e-----3-----------------------5---------------|
b-----3-------5-------3-------5---------------|
g-------------4-------4-----------------------|
d-------------------------------------(x2)----|
a---------------------------------------------|
E-0-----0-5-----0-3-----0-5-----5-------------|

e-----------------------------|
b-----------------------------|
g-----------------------------|
d-2~~~~~~~~~~~~~~~~~~~~~~~~~~~|
a-2---------Let-Ring-Out------|
E-0~~~~~~~~~~~~~~~~~~~~~~~~~~~|


Thanks For Checking it Out ,
                 Johnny P Crash
Добавлено: 06.10.2013
Вам также может быть интересно:
Другие материалы по этой песне:
  • Аккорды и текст

Страница создана 06.10.2013
http://primanota.ru/inspired-but-divided/reflect-chords.htm
Привет, Гость.
Предлагаем пройти революционный курс по гитаре.
Подарок от PrimaNota.Ru, забирай!