PrimaNota.ru - самый крупный в мире бесплатный архив песенных текстов, аккордов, табулатур и нот


Inspiral Carpets - Mermaid - таба, видео

Регистрация Запомнить меня
Войти через:  Facebook Google Twitter Vk Yandex Mail.ru

Inspiral Carpets - Mermaid - таба, видео

Печатать
Просмотров: 138
Уроки эстрадного вокала в Санкт-Петербурге
Авторы музыки: Inspiral Carpets

-------------------------------------------------------------------------------
                             MERMAID - Inspiral Carpets
-------------------------------------------------------------------------------
Tabbed by: Diego Flores
Email: diegoelsanto_2@otmail.com

Tuning: standard

Intro
PIANO
  Am G Am Am Em G
e|-0-------------------------------------|
B|-1--0--1--1----------------------------|
G|-2--0--2--2-----0----------------------|
D|-------------2-------------------------|
A|---------------------------------------|
E|---------------------------------------|

Lead guitar

e|---------------------------------------------------|
B|-3-1-0-----3-1-0----3-1-0--------0-1--3--5-5-3-1---|
G|-------2---------2--------2----2-----------------2-|
D|-----------------------------2---------------------|
A|---------------------------------------------------|
E|---------------------------------------------------|

Verse.... mermaid comes up smiling...

  Am G Am Am Em G
e|-0-------------------------------------|
B|-1--0--1--1----------------------------|
G|-2--0--2--2-----0----------------------|
D|-------------2-------------------------|
A|---------------------------------------|
E|---------------------------------------|

Bridge...skipping and a-twirling...

    C5  B5  A5
e|-----------------------------------|
B|-----------------------------------|
G|---5---4---2-----------------------|
D|---5---4---2-----------------------|
A|---3---2---0-----------------------|
E|-----------------------------------|

...when the tide leaves...

     G5     B5
e|--------------------------------|
B|--------------------------------|
G|--------------------------------|
D|---5------9---------------------|
A|---5------9---------------------|
E|---3------7---------------------|

Instrumental

A5-G5-F5-E5

All x2

Lead guitar (solo) (NOT SURE)
Am G Am Am Em G
e|-----------------------------------------------------|
B|-3-1-0-----3-1-0----3-1-0----3-1-0-------------------|
G|-------2---------2--------2--------2-----------------|
D|-----------------------------------------------------|
A|-----------------------------------------------------|
E|-----------------------------------------------------|

C-Bm-Am
e|-------------------------------|
B|-----0-1-3-5-5-3-1-2-----------|
G|---2-----------------2---------|
D|-2-----------------------------|  x2
A|-------------------------3-2-0-|
E|-------------------------------|

i miss some notes in the min. 2:08

Lead guitar

e|---------------------------------------------------|
B|-3-1-0-----3-1-0----3-1-0--------0-1--3--5-5-3-1---|
G|-------2---------2--------2----2-----------------2-|
D|-----------------------------2---------------------|
A|---------------------------------------------------|
E|---------------------------------------------------|

Verse

Bridge

Instrumental


Bass part 3:01

e|-----------------------------------|
B|-----------------------------------|
G|-----------------------------------|
D|-----------------------------------|  x3
A|-------------------------5-3-2-----|
E|-5-3-0-3-0-3---------5-3-------3---|


Guitar
e|--------------------|
B|--------------------|
G|-5--4--5--7---------|
D|--------------------|  repeat
A|--------------------|
E|--------------------|

Intrumental again

the song ends with Am
Добавлено: 31.05.2012
Другие материалы по этой песне:
  • Аккорды и текст

Страница создана 31.05.2012
http://primanota.ru/inspiral-carpets/mermaid-chords.htm
Привет, Гость.
Предлагаем пройти революционный курс по гитаре.
Подарок от PrimaNota.Ru, забирай!